Cifras e Tablaturas
Paralamas do Sucesso

Paralamas do Sucesso

Lanterna dos Afogados Tablatura Verificada

Ano: 2000
Album : Perfil, Vol. 2
Compositor : (Herbert Vianna)

Cifras Cancelar Versão de Impressão
cifras

Paralamas do Sucesso - Lanterna dos Afogados

fixar na tela  
Exibindo: vídeo-aula ver clipes redimensionar

Tom:

  
Intro Paino: 

e|-------------------------9--7-6-7-9---9-9-----11-9-7-9-6--6-7-9-----| 
B|-----6-7-7--6-7-9-------------------7-----7-9-------------------7-7-| 
G|-6-8--------------6-6--6--------------------------------------------| 
D|--------------------------------------------------------------------| 
A|--------------------------------------------------------------------| 
E|--------------------------------------------------------------------| 

e|----------------------------------9--7-6-7-9---| 
B|------6-7-7---6-----6-----7---9--------------7-| 
G|--6-8-----------8-6-----6---6---6--------------| 
D|-----------------------------------------------| 
A|-----------------------------------------------| 
E|-----------------------------------------------| 

e|-19----14-16----14-|---19----14-16----| 
B|----17-------17----|------17-------17-| 
G|-------------------|------------------| 
D|-------------------|------------------| 
A|-------------------|------------------| 
E|-------------------|------------------| 
                  (3x) 

Intro and Verse: Bsus2 C#7/B A#m D#m (3x) Esus2 


e|----------------------------------6--|--7---7-| 
B|-----7--------6--------6----------7--|--7---7-| 
G|---6--------6--------6----------8----|--9---9-| 
D|-9--------9--------8----------8------|--9---9-| 
A|----------------------------6--------|--7---7-| 
E|-------------------------------------|--------| 

Solo 

e|--------------------------------------------------------------------| 
B|-14-----------------14----------------------------------------------| 
G|-13b15r13-11-13b-~~----13b15r13~~--13b15r13p11-----------11----10~\-| 
D|--------------------------------------------------------------------| 
A|-----------------------------------------------13~~\--13----13------| 
E|--------------------------------------------------------------------| 

e|--------14----------------------------11--------13~--| 
B|--14b16----14b16r14p11-14-14b16r14~~-----14-110------| 
G|-----------------------------------------------------| 
D|-----------------------------------------------------| 
A|-----------------------------------------------------| 
E|-----------------------------------------------------| 

e|-11-------14~~-----14----13~-11----| 
B|----14-11-------11----11--------14-| 
G|-----------------------------------| 
D|-----------------------------------| 
A|-----------------------------------| 
E|-----------------------------------| 

e|------------11----------11-----------11-----------11-| 
B|--14pb16r14----14b16r14----14pb16r14----14pb16r14----| 
G|-----------------------------------------------------| 
D|-----------------------------------------------------| 
A|-----------------------------------------------------| 
E|-----------------------------------------------------| 

e|-------------------------------------------------------| 
B|--14pb16r14--14b16-(16)-(16)-14--14b16r14-14b16r14-~~--| 
G|-------------------------------------------------------| 
D|-------------------------------------------------------| 
A|-------------------------------------------------------| 
E|-------------------------------------------------------| 

e|--------------------------------------------------------------14-------------| 
B|--14-------14-------14-------14-------14-------14-------14b16----14b16-14ha--| 
G|--13b15r13-13b15r13-13b15r13-13b15r13-13b15r13-13b15r13--------------------0-| 
D|---------------------------------------------------------------------------0-| 
A|-----------------------------------------------------------------------------| 
E|-----------------------------------------------------------------------------| 

e|-----19b21~~-19-18-16---------------------------| 
B|--16------------------19---16-19----16-19-16~~\-| 
G|---------------------------------18-------------| 
D|------------------------------------------------| 
A|------------------------------------------------| 
E|------------------------------------------------| 

e|-14-------------------------------------| 
B|----14----------------------------------| 
G|-------13b15-13-11-13-13b15r13p11-13~~~-| 
D|----------------------------------------| 
A|----------------------------------------| 
E|----------------------------------------| 

e|---------------------------------------------------------------------| 
B|----------------14-11~-~-14-11~~-14-11~~-14-11~~-14-11~~-----14-11~~-| 
G|-11----13-11---------------------------------------------------------| 
D|----13-------13-----------------------------------------13~~~--------| 
A|---------------------------------------------------------------------| 
E|---------------------------------------------------------------------| 

  

cifra enviadacorrigido por:Acelot
enviado porenviada por:Tomas Klausing
top 5 | paralamas do sucesso
top rock'n roll
Outras músicas do artista letras do(a) Paralamas do Sucesso
Top cifras »Top artistas »
Petaxxon Comunicação Online
Cifras.com.br - Melhor e mais completo site de cifras e tablaturas do Brasil
Mais de 1 milhão de acordes de músicas cadastradas desde 2003
As informações contidas no nosso site são colaborações de seus usuários e podem conter erros, sendo assim, não nos responsabilizamos sobre nenhuma destas.
close
menos
mais
close
Cor dos acordes:

Cor da letra:

 

save
close
close
 
redimensionar