Cifras e Tablaturas
Parhelia

Parhelia

Our Ship Has Sailed

Cifras Cancelar Versão de Impressão
cifras

Parhelia - Our Ship Has Sailed

fixar na tela  
Exibindo: vídeo-aula ver clipes redimensionar

Tom:

  
INTRO 
(0.10 - 0.17 | - clean tone, no delay) 
e|-------------------------------------------------------------------| 
B|-------------------------------------------------------------------| 
G|-------------------------------------------------------------------| 
D|-10-------7------2-------5-----------------------------------------| 
A|-10-------7------2-------5-----------------------------------------| 
E|-8--------5------0-------3-----------------------------------------| 

SECTION 1 
(0.17 - 1.09 |(phrase repeats 6 times) - clean tone, no delay) 
e|-------------------------------------------------------3-----------| 
B|------0---------------0----------------0-------------3--3-3--------| 
G|----0--0-0-----------0-2-2------------0-0-0---------4-4--4---------| 
D|-0h2-2--2---------0h2---2----------0h2---2-------------------------| 
A|-------------------------------------------------------------------| 
E|-------------------------------------------------------------------| 

SECTION 2 
(- section repeats 4 times) 
(- clean tone, with delay) 
(1.09 - 1.45) 
e|------7---10--7-------7---10--7------------------------------------| 
B|----8-----------------------------------87h87----------------------| 
G|-7h9-9-------------------------------------------------------------| 
D|----------------------------------------------------9-9------------| 
A|-------------------------------------------------------------------| 
E|-------------------------------------------------------------------| 

BRIDGE 1 
(- phrase repeats 6 times) 
(- clean tone, with delay) 
(1.45 - 2.37) 
e|----------------------------------------------10-10/12-12----------| 
B|----7-7-8-8/10-10/12-12---------------7-7-8-8----------------------| 
G|-------------------------------------------------------------------| 
D|-------------------------------------------------------------------| 
A|-------------------------------------------------------------------| 
E|-------------------------------------------------------------------| 

SECTION 3(2.37 - 3.11) 
(- some light distortion, no delay) 
(2.37 - 2.54) 
e|-------------------------------------------------------------------------------| 
B|-------------------------------------------------------------------------------| 
G|-------------------------------------------------------------------------------| 
D|--7-7-75-5-54-4----7-7-75-5-5-12--12------7-7-75-5-54-4----7-7-75-5-5-12--12---| 
A|7--7-7--7-7--5-5-7--7-7--7-7----10---10-7--7-7--7-7--5-5-7--7-7--7-7----10---10| 
E|-------------------------------------------------------------------------------| 

(2.54 - 3.11) 
e|-------------------------------------------------------------------------------| 
B|-------------------------------------------------------------------------------| 
G|-------------------------------------------------------------------------------| 
D|--7-7-75-5-54-4------------------------7-7--75-5-54-4--------------------------| 
A|7--7-7--7-7--5-5-7-7/9-9-10-10/12-12-7--7--7--7-7--5-5---7-7/9-9-10-10/12-12---| 
E|-------------------------------------------------------------------------------| 

SECTION 4(3.11 - 3.29)  
(- section repeats 2 times) 
(- some light distortion, no delay) 
(3.11 - 3.29) 
e|-------------------------------------------------------------------| 
B|-------------------------------------------------------------------| 
G|9-999999-99---141414--------------9-999999-99---161616-------------| 
D|9-999999-99---141414--------------9-999979-99---141414-------------| 
A|-------------------------------------------------------------------| 
E|-------------------------------------------------------------------| 

SECTION 5(3.29 - 4.04) 
(- section repeats 4 times) 
(- medium distortion, no delay) 
(3.29 - 4.04) 
e|-------------------------------------------------------------------| 
B|-------------------------------------------------------------------| 
G|---9-9-9-9--------9-9-9-9----------9-9-9-9----------9-9-9-9--------| 
D|---9-9-9-9--------9-9-9-9----------9-9-9-9----------9-9-9-9--------| 
A|-------------------------------------------------------------------| 
E|-------------------------------------------------------------------| 

(cont. from above) 
e|-------------------------------------------------------------------| 
B|-------------------------------------------------------------------| 
G|---9-9-9-9--------9-9-9-9----------9-9-9-9----------7-7-7-7--------| 
D|---9-9-9-9--------9-9-9-9----------9-9-9-9----------7-7-7-7--------| 
A|-------------------------------------------------------------------| 
E|-------------------------------------------------------------------| 

SECTION 6 
(- clean tone, small delay) 
(4.04 - 4.21)  
e|--------------------------------------------10-10/12-12------------| 
B|12-12-7-7-8-8/10-10/12-12-----------7-7-8-8------------------------| 
G|-------------------------------------------------------------------| 
D|-------------------------------------------------------------------| 
A|-------------------------------------------------------------------| 
E|-------------------------------------------------------------------| 

(cont. from above) 
e|-------------------------------------------------------------------| 
B|----7-7-8-8/10-10/12-12---------------7-7-8-8--3\3-----------------| 
G|-------------------------------------------------------------------| 
D|-------------------------------------------------------------------| 
A|-------------------------------------------------------------------| 
E|-------------------------------------------------------------------| 

OUTRO 
(- Outro repeats 4 times) 
(- clean tone, no delay) 
(4.21 - 5.32 ) 
e|--------------------------------------5----------------5-----------| 
B|--0-30-0------------3---------------3--3-3-----------3--3-3--------| 
G|------------------4--4-4-------------0--0----------0--0--0---------| 
D|2--2--2----------5-5--5-----------0--------------------------------| 
A|-------------------------------------------------------------------| 
E|-------------------------------------------------------------------| 

e|-------------------------------------------------------------------| 
B|-------------------------------------------------------------------| 
G|--2--2-2-----------2--2-2------------------------------------------| 
D|0--00-0----------0--00-0------------2--2-2-----------2-4-5-4-0-----| 
A|----------------------------------0--00-0----------0--0------------| 
E|-------------------------------------------------------------------| 

(5.32 - 5.43)(let final note ring out) 
e|----------------| 
B|----------------| 
G|----------------| 
D|2---------------| 
A|----------------| 
E|----------------| 

************************************ 

| h  Hammer-on 
| /  Slide up 
| \  Slide down 

************************************ 
  

top 5 | parhelia
top rock'n roll
Outras músicas do artista letras do(a) Parhelia
Top cifras »Top artistas »
Petaxxon Comunicação Online
Cifras.com.br - Melhor e mais completo site de cifras e tablaturas do Brasil
Mais de 1 milhão de acordes de músicas cadastradas desde 2003
As informações contidas no nosso site são colaborações de seus usuários e podem conter erros, sendo assim, não nos responsabilizamos sobre nenhuma destas.
close
menos
mais
close
Cor dos acordes:

Cor da letra:

 

save
close
close
 
redimensionar