Cifras e Tablaturas
PARTYNEXTDOOR

PARTYNEXTDOOR

The Right Way

Cifras Cancelar Versão de Impressão
cifras

PARTYNEXTDOOR - The Right Way

fixar na tela  
Exibindo: vídeo-aula ver clipes redimensionar

Tom:

  
The Right Way - PARTYNEXTDOOR 
Tuning: Standard 

Main Riff 
e|-------0-------------6-------------7-------------5-------------| 
B|-------2-------------8-------------8-------------7-------------| 
G|-------2-------------6-------------9-------------7-------------|   x2 
D|-----2---2---------8---8---------9---9---------7---7-----------| 
A|--0-------------6-------------7-------------5------------------| 
E|---------------------------------------------------------------| 
                                   .  
e|-------0-------------6-----------7-----------------------------| 
B|-------2-------------8-----------8-----------------------------| 
G|-------2-------------6-----------9----10/12--10------~~--------|     
D|-----2---2---------8---8---------9---------------11--11--9-----| 
A|--0-------------6-------------7--------------------------------| 
E|---------------------------------------------------------------| 

e|-------0-------------6-------------7--------------7------------| 
B|-------3\2-----------8-------------8--------------7p5----------| 
G|-------2-------------6-------------9--------------7------------| 
D|-----2---2---------8---8---------9---9----------7---7----------| 
D|--0-------------6-------------7--------------5-----------------| 
E|---------------------------------------------------------------| 



************************************ 

| p   Pull-off 
| /   Slide up 
| \   Slide down 
| ~   Vibrato 
| .   Staccato 

************************************ 
  

top 5 | partynextdoor
top rock'n roll
Outras músicas do artista letras do(a) PARTYNEXTDOOR
Top cifras »Top artistas »
Petaxxon Comunicação Online
Cifras.com.br - Melhor e mais completo site de cifras e tablaturas do Brasil
Mais de 1 milhão de acordes de músicas cadastradas desde 2003
As informações contidas no nosso site são colaborações de seus usuários e podem conter erros, sendo assim, não nos responsabilizamos sobre nenhuma destas.
close
menos
mais
close
Cor dos acordes:

Cor da letra:

 

save
close
close
 
redimensionar