Cifras e Tablaturas
Patricio Rey y sus Redonditos de Ricota
Cifras Cancelar Versão de Impressão

Patricio Rey y sus Redonditos de Ricota - Ramas Desnudas

Tom: Em

  			

Intro 
e|7--7-5-3-0-----3-0--------7--10--7-5-3-0-----3-0-----14h15p14-14--10\7--| 
B|-----------3-0---------------------------3-0----------------------------| 
G|------------------------------------------------------------------------| 
D|------------------------------------------------------------------------| 
A|------------------------------------------------------------------------| 
E|------------------------------------------------------------------------| 

Verse 
ventanal... 
e|---------/7-12-7-7\3| 
B|--------------------| 
G|--------------------| 
D|--------------------| 
A|--------------------| 
E|--------------------| 

  rama\ de\nuda\ que... 
e|-------------------14h15p14-14--10\7--| 
B|--------------------------------------| 
G|--------------------------------------| 
D|--------------------------------------| 
A|--------------------------------------| 
E|--------------------------------------| 

e|-----------12---------| 
B|--------------12-12~~-| 
G|----------------------| 
D|----------------------| 
A|----------------------| 
E|----------------------| 

e|-----------7--7-5-3-0-----3-0--------7--10--7-5-3-0-----3-0-| 
B|----------------------3-0---------------------------3-0-----| 
G|------------------------------------------------------------| 
D|------------------------------------------------------------| 
A|------------------------------------------------------------| 
E|------------------------------------------------------------| 

PRE-SOLO                        SOLO 
e|-----0-----------------------|-10--7-5--3-5-3--3-5-3-7--0-0~--| 
B|-------0---------3~--0-------|--------------------------------| 
G|----------4--2\4-------0-----|--------------------------------| 
D|4\5----------------------0---|--------------------------------| 
A|-----------------------------|--------------------------------| 
E|-----------------------------|--------------------------------| 

e|--0--2-3-5-7--5-3-2-0-2--------0-2-3-5-3-2-0-----------2-2~--3-5-9-3-0-10-9-5-3--5-3-5-9-5-0| 
B|------------------------0--3~----------------3-1--1-0---------------------------------------| 
G|--------------------------------------------------------------------------------------------| 
D|--------------------------------------------------------------------------------------------| 
A|--------------------------------------------------------------------------------------------| 
E|--------------------------------------------------------------------------------------------| 

Outro 
e|-------------0\7-12---14h15p14-10\7-------------------------7--7-5-7\10-7-| 
B|--------------------------------------------------------------------------| 
G|------------------------------------9-9-7-9-7-9-7-9-7-9-7-----------------| 
D|--------------------------------------------------------------------------| 
A|--------------------------------------------------------------------------| 
E|--------------------------------------------------------------------------| 

e|--2-3-2-0---3-0---7-3\5\3\7---15\17-17\19-19--19\15-15-17-17-15p12---14h15p14-10-10\7--5\7\5-3-3\7| 
B|----------0---------------------------------------------------------------------------------------| 
G|--------------------------------------------------------------------------------------------------| 
D|--------------------------------------------------------------------------------------------------| 
A|--------------------------------------------------------------------------------------------------| 
E|--------------------------------------------------------------------------------------------------| 



************************************ 

| h  Hammer-on 
| p  Pull-off 
| /  Slide up 
| ~  Vibrato 

************************************ 
    	
fixar
fixar inscrever-se

enviado porenviado por: gustsilva
cifra enviadaCorrigida por: sem correções
logo top cifrasComente
ico música do artistaMúsicas deste artista
ico curtiuCurtiu?
ico destaqueDestaque
Petaxxon Comunicação Online

Cifras.com.br - Melhor e mais completo site de cifras e tablaturas do Brasil Mais de 1 milhão de acordes de músicas cadastradas desde 2003
As informações contidas no nosso site são colaborações de seus usuários e podem conter erros, sendo assim, não nos responsabilizamos sobre nenhuma destas.

close
menos
mais
close
Cor dos acordes:

Cor da letra:

close
Alinhar acordes a direita Alinhar acordes a esquerda Alinhar acordes em baixo Alinhar acordes no topo
close
  Mostrar todos os acordes Esconder acordes muito fáceis Esconder acordes fáceis Esconder acordes intermediários
redimensionar
glossário