Cifras e Tablaturas
Paul Mauriat

Paul Mauriat

Song For Anna Tablatura Verificada

Compositor : (Paul Mauriat)

Cifras Cancelar Versão de Impressão
cifras

Paul Mauriat - Song For Anna

fixar na tela  
Exibindo: vídeo-aula ver clipes redimensionar
   
1ª Parte  



 e|----2-----5-----4-----2---------------------------------|  
 B|--2---5-2-----2-----2-----2-5-----5-----3---2-3--------0|  
 G|2-----------2-----2-----2-------2-----2-----------4-1-2-|  
 D|------------------------------2-----4-----4-----4-------|  
 A|----------0-----------------------2-----------2---------|  
 D|--------------------------------------------------------|  



 e|-------0-----4-----2-----0------------------------------|  
 B|-----0---3-0-----0-----0-------3-----3-----2---1-2------|  
 G|---1-----------1-----1-------1-----1-----2-----------2--|  
 D|---------------------------2-----2-----2-----2-----2----|  
 A|-------------------------------------0------------------|  
 D|-2-----------2------------------------------------------|  



 e|-------------2-----5-----4-----2------------------------|  
 B|-----------2---5-2-----2-----2-----2-5-----5-----3---2--|  
 G|-----1---2-----------2-----2-----2-------2-----2--------|  
 D|-2-4-----------------------------------2-----4-----4----|  
 A|-------0-----------0-----------------------2------------|  
 D|--------------------------------------------------------|  



 e|-------------------0-----4-----2-----0------------------|  
 B|-3---------0-----0---3-0-----0-----0-------3-----3-----2|  
 G|-----4-1-2-----1-----------1-----1-------1-----1-----2--|  
 D|---4-----------------------------------2-----2-----2----|  
 A|-2-----------------------------------------------0------|  
 D|-------------2-----------2------------------------------|  



 e|--------------------------------------------------------|  
 B|---1-2--------------------------------------------------|  
 G|--------------------------------------------------------|  
 D|-2------------------------------------------------------|  
 A|--------------------------------------------------------|  
 D|--------------------------------------------------------|  





  2ª Parte  




 e|----------2-4-5-------4-5-7---5-9-----------------------|  
 B|----------3---7-7-----5-7-9-9-7-10-10----10-2-3-5-------|  
 G|-2----1---2---------------------9-----------2-4-6---4---|  
 D|2-2-4---4-----------------------------11----------7--7\6|  
 A|------------------0-------------0---------------0-------|  
 D|--------0-----------0-----------------------------------|  



 e|-------2-4--------4--5--7---9---10-10-10-10-10-10-10-10-|  
 B|-----5-3-5-5-----5--7--9--10--12---12-12-12-12-12-12-12-|  
 G|-----4--------------------------------------------------|  
 D|-4-2-----------2----------------------------------------|  
 A|-------------2---------------------0--------------------|  
 D|---2----------------------------------------------------|  



 e|-9--9--9--9--9------2--4--5------4--5--7---5--9---------|  
 B|-10-10-10-10-10-----3--------------------0----10-10--10-|  
 G|--------------------2-------------------------9---------|  
 D|------------------4----2--4------2--4--6---4-------11---|  
 A|-0--------------0-----------0-----------------0---------|  
 D|------------------0-----------0-------------------------|  



 e|-------------------1-3-5-5-----7--9--10--9---0-12(HA)---|  
 B|-2-3-5-------------1---6-----------------0--------------|  
 G|-2-4-6---4---------2---------------------6--------------|  
 D|-------7---7\6-4-3-----0---0---5--7------7--------------|  
 A|-----0-----------------------8-----------0-3------------|  
 D|-------------------------------------9------------------|  



 e|--------------------------------------------------------|  
 B|1-13(HA)--------1-13(HA)--------------------------------|  
 G|--------0-12(HA)--------0-12(HA)--------0-12(HA)--------|  
 D|--------------------------------2-14(HA)--------2-14(HA)|  
 A|--------------------------------------------------------|  
 D|--------------------------------------------------------|  



 e|------------4-16(HA)-0-12(HA)--------0-12(HA)-----------|  
 B|-----------------------------0-12(HA)--------0-12(HA)---|  
 G|--------------------------------------------------------|  
 D|--------------------------------------------------------|  
 A|-3-15(HA)-----------------------------------------------|  
 D|----------2---------------------------------------------|  



 e|--------------------------------------------------------|  
 B|----------0-12(HA)--------------------------------------|  
 G|-1-13(HA)----------1-13(HA)-----------------------------|  
 D|----------------------------2-14(HA)--------------------|  
 A|--------------------------------------------------------|  
 D|--------------------------------------------------------|  

    



 3ª Parte  





 e|----2-----5-----4-----2---------------------------------|  
 B|--2---5-2-----2-----2-----2-5-----5-----3---2-3--------0|  
 G|2-----------2-----2-----2-------2-----2-----------4-1-2-|  
 D|------------------------------2-----4-----4-----4-------|  
 A|----------0-----------------------2-----------2---------|  
 D|--------------------------------------------------------|  



 e|-------0-----4-----2-----0------------------------------|  
 B|-----0---3-0-----0-----0-------3-----3-----2---1-2------|  
 G|---1-----------1-----1-------1-----1-----2-----------2--|  
 D|---------------------------2-----2-----2-----2-----2----|  
 A|-------------------------------------0------------------|  
 D|-2-----------2------------------------------------------|  



 e|-------------2-----5-----4-----2------------------------|  
 B|-----------2---5-2-----2-----2-----2-5-----5-----3---2--|  
 G|-----1---2-----------2-----2-----2-------2-----2--------|  
 D|-2-4-----------------------------------2-----4-----4----|  
 A|-------0-----------0-----------------------2------------|  
 D|--------------------------------------------------------|  




 e|---------------1-3-5--7-5---------2---------------------|  
 B|-3-------------3---6--------2-3-5---5---0-2-3-2-0-------|  
 G|-----4---------2------------2-----------1---------------|  
 D|---4-----0-2-0--------------2-----------0---------------|  
 A|-2-----4------------------0-----------------------------|  
 D|--------------------------------------0-----------------|  



 e|-------2-----5---3--------------------------------------|  
 B|-----2---5-2---------6---4---3--------------------------|  
 G|---2-----------3---3---3---3-----6-------2--------------|  
 D|-------------------------------3-------2---2------------|  
 A|-0---------------------------------0-4-------4----------|  
 D|-------------5-----------5------------------------------|  



 e|-------2-----5---3--------------------------------------|  
 B|-----2---5-2---------6---4---3--------------------------|  
 G|---2-----------3---3---3---3-----6-------2--------------|  
 D|-------------------------------3-------2---2------------|  
 A|-0---------------------------------0-4-------4-0--------|  
 D|-------------5-----------5------------------------------|  




 4ª Parte  

Modulação para Dó Maior  


 e|-------5-3---8-----7-----5----------3-----1---0-1-------|  
 B|-----5-----5-----5-----5-----5-7--------3---------3-----|  
 G|---5-----------5-----5-----5------5---2-----2-----2-----|  
 D|-------------5------------------5---0-----------0-------|  
 A|-3------------------------------------------------------|  
 D|--------------------------------------------------------|  



 e|---------------3-----7-----5-----3-----1-----1-----0----|  
 B|-------------3---6-3-----0-----0-----0-----0-3---3-1---4|  
 G|-----------4-----------0-----0-----0-----0---0-0-----0--|  
 D|--------------------------------------------------------|  
 A|---------------------------------------------3----------|  
 D|-2-3/5-7-5-----------5-----3-----2-----0----------------|  



 e|-0-----------------5-3---8-----7----5-----------3-----1-|  
 B|-1---1-----------5-----5-----5----5-----5-7---------3---|  
 G|---0-----------5-----------5----5-----5-------5---2-----|  
 D|-------------------------5------------------5---0-------|  
 A|-3-----------3------------------------------------------|  
 D|-------2-3-5--------------------------------------------|  



 e|---0-1---------------8-10-8--------3-5-3----------------|  
 B|-------3-----------9-------------5------------3-6-5-3---|  
 G|-2-----2---------8-------------5------------4-----------|  
 D|-----0---2-3-5------------------------------------------|  
 A|---------------8-------------3--------------------------|  
 D|------------------------------------------5-------------|  




 e|-------0-----8---6-----------------------0-----8---6----|  
 B|-----1---1-----------9---7---6---------1---1-----------9|  
 G|---0-------0---6---6---6---6-----9---0-------0---6---6--|  
 D|-------------------------------6------------------------|  
 A|-3---------------------------------3--------------------|  
 D|-------------8-----------8---------------------8--------|  



 e|--------------------------------------------------------|  
 B|---7---6------------------------------------------------|  
 G|-6---6-----9--------------------------------------------|  
 D|---------6----5-----------------------------------------|  
 A|--------------3-----------------------------------------|  
 D|---8----------2-----------------------------------------|  

  

top 5 | paul mauriat
top música clássica
Outras músicas do artista letras do(a) Paul Mauriat
Top cifras »Top artistas »
Petaxxon Comunicação Online
Cifras.com.br - Melhor e mais completo site de cifras e tablaturas do Brasil
Mais de 1 milhão de acordes de músicas cadastradas desde 2003
As informações contidas no nosso site são colaborações de seus usuários e podem conter erros, sendo assim, não nos responsabilizamos sobre nenhuma destas.
close
menos
mais
close
Cor dos acordes:

Cor da letra:

 

save
close
close
 
redimensionar