Cifras e Tablaturas
Paulinho Nogueira

Paulinho Nogueira

Bachianinha Nº1Tablatura Verificada

Cifras Cancelar Versão de Impressão

Paulinho Nogueira - Bachianinha Nº1

Tom: Am

  			Intro:  

----0-----0-----0-----0-----0-0-0-----0---------0-0-0-0-0-0-0---  
-5-----3-----1-----0-----0---------3-----1p0-1------------------  
-5-----4-----2-----2-----1---------4-----2---2------------------  
----------------------------------------------------------------  
----------------------------------------------------------------  
----------------------------------------------------------------  

----0-----0-----0-----0-----0-0-0-----0---------0-0-0-----0-0-0-  
-5-----3-----1-----0-----0---------3-----1p0-1---------1--------  
-5-----4-----2-----2-----1---------4-----2---2---------2--------  
----------------------------------------------------------------  
----------------------------------------------------------------  
----------------------------------------------------------------  

----0-0-0-----0-0-0-----0-0-0-0-0-0-0---------------------------  
-0---------0---------0------------------------------------------  
-2---------2---------1------------------------------------------  
----------------------------------------------------------------  
----------------------------------------------------------------  
----------------------------------------------------------------  

Parte A  

-8----------------------------5-----7-----8-----7-----8---------  
-------5-----------5h8--6---------------------------------------  
----5-----5-----5----------5-----5-----5-----5-----7-----7------  
------------------------------------------------5---------------  
-0-----------0----------0-----------0---------------------------  
----------------------------------------------------------------  

-10-------------12-------------------8-12-10--------------7-10-7  
---------8------------------------8---------------------9-------  
-----10-----10----------9------9-----------------7--10----------  
--9-----------------10-----10-----------------9-----------------  
--------------------------------------------------------7-------  
-----------------8-------------8-----------7--------------------  

-8-------------5-7-8--7----------------5----5----4--------------  
-------5--------------------6------------------------------3----  
----5-----5--------------7-----7-----5---5-----4---4-----4---4--  
-------------7--------0---------------------2---------2---------  
-0-----------0--------------------6-----------------------------  
----------------------------------------------------------------  

-7-----8-----5-----7-----5-----4--------------------------------  
-------------------------------------------3--------------------  
----7-----7-----5-----5-----4-----4-----4-----4-----------------  
-0-----------------------2-----------0--------------------------  
-------------6--------------------------------------------------  
----------------------------------------------------------------  


>>>  


-------3-----3-----5-----3-----1p0--1---------------------------  
------------------------------------------3---------------------  
----2-----2-----2-----2-----2----------2-----2------------------  
-------------2-----------0----------0---------------------------  
-4--------------------------------------------------------------  
----------------------------------------------------------------  

-------5-----5-----7-----5-----4-----5-----7--------------------  
----------------------------------------------------------------  
----4-----4-----4-----4-----4-----4-----4-----7-----------------  
-------------4-----------2-----------3-----6--------------------  
-6--------------------------------------------------------------  
----------------------------------------------------------------  

-8-----7-----5-----7-----5---------1---0------------------------  
-------------------------------8----------3-1--------0----------  
----5-----5-----5-----5-----7----7---2----------2----------1----  
-7-----------------------0--------------------2---2-----2-----2-  
-------------3---------------------2----------------------------  
--------------------------------------------0--------0----------  

>>>  


----------0--3-----------0--------------------------------------  
-------1-----------3-----------1-------------0-----1------------  
----2-----------0-----0-----0----------------------------2------  
------------------------------------------2-----2-----2-----2---  
-0-----------2-----------3--------2p0--------------0------------  
---------------------------------------4------------------------  
                                2x                  

----------------------------------|-----------------------------  
-3-----------0-----1--3--1-----0--|-----------------------------  
-------2--------------------------|-----------------------------  
----3-----3-----3-----------0-----|-----------------------------  
-2--------------------------------|-----------------------------  
-------------1-----------0--------|-----------------------------  

----------------------------------|-----0-0-0-------------------  
-3-----------0-----1--3--1-----0--|-----------------------------  
-------2--------------------------|--2--------------------------    Faz de novo a Introdução e segue a baixo:  
----3-----3-----3-----------0-----|-----------------------------  
-2--------------------------------|--0--------------------------  
-------------1-----------0--------|-----------------------------  


Parte B                                                                          2x   

                                                                                  
---0-0-0---0-0-0---0-0-0---0-0-0---0-0-0---0---0---0-0-0---0-0-0  
----------------------------------------------------------------  
-5-------5-------5-------5-------4-------4---4---4-------4------  
-9-------7-------9-------7-------7-------6---4---6-------6------  
----------------------------------------------------------------  
----------------------------------------------------------------  

>>>>  

----0-0-0-----0-0-0-----0-0-0-----0-----0-----0-0-0-----0-0-0---  
----------------------------------------------------------------  
-2---------4---------5---------4-----2-----2---------1----------  
-3---------3---------3---------3-----3-----2---------2----------  
----------------------------------------------------------------  
----------------------------------------------------------------  

----0-0-0-----0-----0-----0-0-0-----0-0-0-----0-0-0-----0-0-0---  
----------------------------------------------------------------  
-2---------4-----2-----2---------1---------1---------1----------  
-3---------3-----3-----2---------2---------2---------2----------  
----------------------------------------------------------------  
----------------------------------------------------------------  

>>>  


---0-0-0---0-0-0---0-0-0---0-0-0---0-0-0---0-0-0---0-0-0---0-0-0  
----------------------------------------------------------------  
-1-------1-------1-------1-------4-------2-------4-------2------  
-0-------0-------0-------0--------------------------------------  
---------------------------------3-------3-------3-------3------  
----------------------------------------------------------------  

----0-0-0-0-0-0-0------0-0-0-0-0-0-0----------------------------  
----------------------------------------------------------------  
-2-----------------1--------------------------------------------  
----------------------------------------------------------------  
-2--------------------------------------------------------------  
-------------------0--------------------------------------------  

Final  

-----------------------------------------------------------------  
------1----------3-----------1-----------3-----1--0--------------  
------2----------4-----------2-----------4-----2-----2--2--1--2--  
---2-----2----2-----2-----2-----2-----2-----2--2--------2-----2--  
-0---------0-----------0-----------0-----------0--------2-----4--  
--------------------------------------------------------0-----5--
    	
fixar
fixar inscrever-se

enviado porenviado por: iagovillareal
cifra enviadaCorrigida por: sem correções
logo top cifrasComente
ico música do artistaMúsicas deste artista
ico curtiuCurtiu?
ico destaqueDestaque
Petaxxon Comunicação Online

Cifras.com.br - Melhor e mais completo site de cifras e tablaturas do Brasil Mais de 1 milhão de acordes de músicas cadastradas desde 2003
As informações contidas no nosso site são colaborações de seus usuários e podem conter erros, sendo assim, não nos responsabilizamos sobre nenhuma destas.

close
menos
mais
close
Cor dos acordes:

Cor da letra:

close
Alinhar acordes a direita Alinhar acordes a esquerda Alinhar acordes em baixo Alinhar acordes no topo
close
  Mostrar todos os acordes Esconder acordes muito fáceis Esconder acordes fáceis Esconder acordes intermediários
redimensionar
glossário