Cifras e Tablaturas
Pierce The Veil

Pierce The Veil

Song For Isabelle

Cifras Cancelar Versão de Impressão
cifras

Pierce The Veil - Song For Isabelle

fixar na tela  
Exibindo: vídeo-aula ver clipes redimensionar
  Intro 

D#|-----------4----------4-|-----------4-----------4-|-----------4--------4-|----------4-----------4-| 
A#|--------5----------5----|-----4--5--------4--5----|--------5--------5----|----4--5--------4--5----| 
F#|-----6----------6-------|--4-----------4----------|-----6--------6-------|-4-----------4----------| (2x) 
C#|--7---------------------|-------------------------|--7-------------------|------------------------| 
G#|------------------------|-------------------------|----------------------|------------------------| 
C#|------------------------|-------------------------|----------------------|------------------------| 


Verse 

D#|------------------|------------------|------------------|------------------| \ 
A#|------------------|------------------|------------------|------------------|  | 
F#|------------------|------------------|------------------|------------------|  | 
C#|------------------|------------------|------------------|------------------|  | 
G#|------------------|------------------|------------------|------------------|  | 
C#|--7-7-7-7-7-7-7-7-|--9-9-9-9-9-9-9-9-|--7-7-7-7-7-7-7-7-|--2-2-2-2-9-9-9-9-|  | 
   PM.........................................................................   | (2x) 
                                                                                 | 
D#|------------------|------------------|------------------|------------------|  | 
A#|------------------|------------------|------------------|------------------|  | 
F#|------------------|------------------|------------------|------------------|  | 
C#|------------------|------------------|------------------|------------------|  | 
G#|------------------|------------------|--4-4-4-4-4-4-4-4-|--6-6-6-6-6-6-6-6-|  | 
C#|--7-7-7-7-7-7-7-7-|--9-9-9-9-9-9-9-9-|------------------|------------------| / 
   PM......................................................................... 


PreChorus 

D#|------------------|------7-----------|------------------|------------------| 
A#|------------------|----------7-------|------------------|------------------| 
F#|--6---------------|--------------9---|------------------|------------------| 
C#|--6---------------|------------------|--7---------------|------------------| 
G#|--4---------------|--7---------------|--7---------------|------------------| 
C#|------------------|------------------|--7---------------|------------------| 


Chorus 

D#|------------------|------------------|------------------|------------------| 
A#|------------------|------------------|------------------|------------------| 
F#|------------------|------------------|------------------|------------------| 
C#|--7-7-7-7-7-7-7-7-|--9-9-9-9-9-9-9-9-|--4-4-4-4-4-4-4-4-|--4-4------4---6--| 
G#|--7-7-7-7-7-7-7-7-|--9-9-9-9-9-9-9-9-|--4-4-4-4-4-4-4-4-|--4-4--4----------| 
C#|--7-7-7-7-7-7-7-7-|--9-9-9-9-9-9-9-9-|--4-4-4-4-4-4-4-4-|--4-4-------------| 

D#|------------------|------------------|------------------|------------------| 
A#|------------------|------------------|------------------|------------------| 
F#|------------------|------------------|------------------|------------------| 
C#|--7-7-7-7-7-7-7-7-|--6-6-6-6-2-2-2-2-|--4-4-4-4-4-4-4-4-|--4-4-4-4-4-4-4-4-| 
G#|--7-7-7-7-7-7-7-7-|--6-6-6-6-2-2-2-2-|--4-4-4-4-4-4-4-4-|--4-4-4-4-4-4-4-4-| 
C#|--7-7-7-7-7-7-7-7-|--6-6-6-6-2-2-2-2-|--4-4-4-4-4-4-4-4-|--4-4-4-4-4-4-4-4-| 


Interlude 

D#|------------------|------------------|------------------|------------------| 
A#|--9---------------|--7------10-------|--9---------------|--7------4--------| 
F#|------------------|------------------|------------------|------------------| 
C#|--6---------------|--4------7--------|--6---------------|--4------1--------| 
G#|------------------|------------------|------------------|------------------| 
C#|------------------|------------------|------------------|------------------| 


Verse 

D#|--------------------------------------|--------------------------------------| 
A#|--------------------------------------|--------------------------------------| 
F#|--------------------------------------|--------------------------------------| (3x) 
C#|--------------------------------------|------------------------------9-9-9-9-| 
G#|--------11---11-----------11-11-11-11-|--9---------------12-12-12-12---------| 
C#|--7-7-7---------7---7-7---------------|-----9-9-9-9-9-9----------------------| 

D#|--------------------------------------|--------------------------------------| 
A#|--------------------------------------|--------------------------------------| 
F#|--------------------------------------|--------------------------------------| 
C#|----------7-7-7-7--6-6-6-6--4-4-4-4---|--4-----------------------------------| 
G#|--------------------------------------|--4-----------------------------------| 
C#|--4-4-4-4-----------------------------|--4-----------------------------------| 


PreChorus 

D#|------------------|--------------------------|------------------|---------------------| 
A#|------------------|--------------------------|------------------|---------------------| 
F#|------------------|--------------------------|------------------|----9-9---9-9---13---| 
C#|--7---------------|----9-9---9-9-------------|--7---------------|----9-9---9-9--------| 
G#|--7---------------|----9-9---9-9---12---11---|--7---------------|----7-7---7-7---11---| 
C#|--7---------------|----9-9---9-9-------------|--7---------------|---------------------| 

D#|------------------|------------------|------------------|--------------------| 
A#|------------------|------------------|------------------|--------7--9--7-----| 
F#|------------------|------------------|------------------|--6--9-----------9--| 
C#|------------------|------------------|--4-4-4-4-4-4-4-4-|--------------------| 
G#|------------------|------------------|--4-4-4-4-4-4-4-4-|--------------------| 
C#|------------------|------------------|--4-4-4-4-4-4-4-4-|--------------------| 


Chorus 

D#|------------------|------------------|------------------|-------------------| 
A#|------------------|------------------|------------------|-------------------| 
F#|------------------|------------------|------------------|-------------------| 
C#|--7-7-7-7-7-7-7-7-|--9-9-9-9-9-9-9-9-|--4-4-4-4-4-4-4-4-|--4-4------4---6---| 
G#|--7-7-7-7-7-7-7-7-|--9-9-9-9-9-9-9-9-|--4-4-4-4-4-4-4-4-|--4-4--4-----------| 
C#|--7-7-7-7-7-7-7-7-|--9-9-9-9-9-9-9-9-|--4-4-4-4-4-4-4-4-|--4-4--------------| 

D#|------------------|------------------|------------------|-------------------| 
A#|------------------|------------------|------------------|-------------------| 
F#|------------------|------------------|------------------|-------------------| 
C#|--7-7-7-7-7-7-7-7-|--6-6-6-6-2-2-2-2-|--4-4-4-4-4-4-4-4-|--4------6-4-------| 
G#|--7-7-7-7-7-7-7-7-|--6-6-6-6-2-2-2-2-|--4-4-4-4-4-4-4-4-|--4--4-7-------7---| 
C#|--7-7-7-7-7-7-7-7-|--6-6-6-6-2-2-2-2-|--4-4-4-4-4-4-4-4-|--4----------------| 

D#|------------------|------------------|------------------|--------------------| 
A#|------------------|------------------|------------------|--------------------| 
F#|--6------6--4--6--|--8------9--------|------------------|--------------------| 
C#|------------------|------------------|--7---------------|----------6---------| 
G#|--4------4--2--4--|--6------7--------|--7---------------|----------6---------| 
C#|------------------|------------------|--7---------------|----------6---------| 

D#|------------------|------------------|------------------|--------------------| 
A#|------------------|------------------|------------------|--------------------| 
F#|------------------|------------------|------------------|--------------------| 
C#|--4---------------|--------6-4---6---|--7---------------|--------------------| 
G#|--4---------------|----4-7-----------|--7---------------|--------------------| 
C#|--4---------------|------------------|--7---------------|--------------------| 


Bridge 

D#|--------4-------4-|--------4-------4-|----------9---------9-|---------9--12---11---| 
A#|------5-------5---|------5-------5---|-------10--------10---|------10-------9----9-| 
F#|----6-------6-----|----6-------6-----|----11--------11------|---11-----------------| (6x) 
C#|------------------|------------------|----------------------|----------------------| 
G#|--4-------4-------|--4-------4-------|--9---------9---------|-9--------------------| 
C#|------------------|------------------|----------------------|----------------------| 

D#|------------------|------------------|------------------|---------------------| \ 
A#|------------------|------------------|------------------|---------------------|  | 
F#|------------------|------------------|------------------|---------------------|  | 
C#|----6-6-6-6-------|----6-6-6-6-------|----7-7-7-7-------|----6-6-6-6----------|  | 
G#|--4---------4-4-4-|------------4-4-4-|------------4-4-4-|------------4--<6>---|  | 
C#|------------------|------------------|------------------|---------------------|  | 
                                                                                    | (2x) 
                                                                                    | 
D#|------------------|------------------|-------------------|--------------------|  | 
A#|------------------|------------------|-------------------|--------------------|  | 
F#|------------------|------------------|-------------------|--------------------|  | 
C#|----6-6-6-6-------|----6-6-6-6---6-9-|--7-7-7-7--6-6-6-6-|--4-4-4-4--6-6-6-6--|  | 
G#|------------4-4-4-|------------4-----|-------------------|--------------------|  | 
C#|------------------|------------------|-------------------|--------------------| / 


Chorus 

D#|------------------|------------------|------------------|-------------------| 
A#|------------------|------------------|------------------|-------------------| 
F#|------------------|------------------|------------------|-------------------| 
C#|--7---------------|--9---------------|--4---------------|-----------4---6---| 
G#|--7---------------|--9---------------|--4---------------|-------4-----------| 
C#|--7---------------|--9---------------|--4---------------|-------------------| 

D#|------------------|------------------|------------------|-------------------| 
A#|------------------|------------------|------------------|-------------------| 
F#|------------------|------------------|--6-6-6-6-6-6-6-6-|--6-6-6-6-6-6-6-6--| 
C#|--7---------------|--6---------------|--6-6-6-6-6-6-6-6-|--6-6-6-6-6-6-6-6--| 
G#|--7---------------|--6---------------|--4-4-4-4-4-4-4-4-|--4-4-4-4-4-4-4-4--| 
C#|--7---------------|--6---------------|------------------|-------------------| 

D#|------------------|------------------|------------------|-------------------| 
A#|------------------|------------------|------------------|-------------------| 
F#|------------------|------------------|------------------|-------------------| 
C#|--7-7-7-7-7-7-7-7-|--9-9-9-9-9-9-9-9-|--4-4-4-4-4-4-4-4-|--4-4------4---6---| 
G#|--7-7-7-7-7-7-7-7-|--9-9-9-9-9-9-9-9-|--4-4-4-4-4-4-4-4-|--4-4--4-----------| 
C#|--7-7-7-7-7-7-7-7-|--9-9-9-9-9-9-9-9-|--4-4-4-4-4-4-4-4-|--4-4--------------| 

D#|------------------|------------------|------------------|-------------------| 
A#|------------------|------------------|------------------|-------------------| 
F#|------------------|------------------|------------------|-------------------| 
C#|--7-7-7-7-7-7-7-7-|--6-6-6-6-2-2-2-2-|--4-4-4-4-4-4-4-4-|--4-4-4-4-4-4-4-4--| 
G#|--7-7-7-7-7-7-7-7-|--6-6-6-6-2-2-2-2-|--4-4-4-4-4-4-4-4-|--4-4-4-4-4-4-4-4--| 
C#|--7-7-7-7-7-7-7-7-|--6-6-6-6-2-2-2-2-|--4-4-4-4-4-4-4-4-|--4-4-4-4-4-4-4-4--| 


Outro 

D#|------------------|------------------|------------------|--------------------| 
A#|------------------|------------------|------------------|--------------------| 
F#|------------------|------------------|------------------|--------------------| (2x) 
C#|--7-7-7-7-7-7-7-7-|--9-9-9-9-9-9-9-9-|--4-4-4-4-4-4-4-4-|--4-4-4-4-4-4-4-4---| 
G#|--7-7-7-7-7-7-7-7-|--9-9-9-9-9-9-9-9-|--4-4-4-4-4-4-4-4-|--4-4-4-4-4-4-4-4---| 
C#|--7-7-7-7-7-7-7-7-|--9-9-9-9-9-9-9-9-|--4-4-4-4-4-4-4-4-|--4-4-4-4-4-4-4-4---| 


************************************ 
| PM  Palm mute 
************************************ 
  

top 5 | pierce the veil
top rock'n roll
Outras músicas do artista letras do(a) Pierce The Veil
Top cifras »Top artistas »
Petaxxon Comunicação Online
Cifras.com.br - Melhor e mais completo site de cifras e tablaturas do Brasil
Mais de 1 milhão de acordes de músicas cadastradas desde 2003
As informações contidas no nosso site são colaborações de seus usuários e podem conter erros, sendo assim, não nos responsabilizamos sobre nenhuma destas.
close
menos
mais
close
Cor dos acordes:

Cor da letra:

 

save
close
close
 
redimensionar