Cifras e Tablaturas
Pierre Van Dormael

Pierre Van Dormael

La Nature Des Peurs - Mrnobody

Cifras Cancelar Versão de Impressão Print

Pierre Van Dormael - La Nature Des Peurs - Mrnobody

Tom: Dm

  			

  Electric guitar 1 00:00-00:27 

 |--------0---------------0---------------0--------------0---------| 
 |------3------3--------3------3--------3-----3--------3-----3-----| 
 |----3----------3----2----------2----1---------1----1---------1---| 
 |--0--------0------0--------0------0-------0------0-------0-------| 
 |-----------------------------------------------------------------| 
 |-----------------------------------------------------------------| 

 |--------5--------------5---------------5--------------5----------| 
 |------8-----8--------8------8--------8-----8--------8-----8------| 
 |----8---------8----7----------7----6---------6----6---------6----| 
 |--0-------0------0--------0------0-------0------0-------0--------| x 2 
 |-----------------------------------------------------------------| 
 |-----------------------------------------------------------------| 

  Electric guitar 1 00:27-00:53 

  Bass guitar kicks in and electric guitar 1 doesn't play the  
  bass notes of the chords for next section. 

 |--------0---------------0---------------0--------------0---------| 
 |------3------3--------3------3--------3-----3--------3-----3-----| 
 |----3----------3----2----------2----1---------1----1---------1---| 
 |-----------------------------------------------------------------| 
 |-----------------------------------------------------------------| 
 |-----------------------------------------------------------------| 

 |--------5--------------5---------------5--------------5----------| 
 |------8-----8--------8------8--------8-----8--------8-----8------| 
 |----8---------8----7----------7----6---------6----6---------6----| 
 |-----------------------------------------------------------------|  
 |-----------------------------------------------------------------| 
 |-----------------------------------------------------------------| 


 |--------0---------------0---------------0--------------0---------| 
 |------3------3--------3------3--------3-----3--------3-----3-----| 
 |----3----------3----2----------2----1---------1----1---------1---| 
 |-----------------------------------------------------------------| 
 |-----------------------------------------------------------------| 
 |-----------------------------------------------------------------| 
  
  Notice the "last" chord is played only once here. 

 |--------5--------------5---------------5--------| 
 |------8-----8--------8------8--------8-----8----| 
 |----8---------8----7----------7----6---------6--| 
 |------------------------------------------------| 
 |------------------------------------------------| 
 |------------------------------------------------| 

  Electric guitar 1 00:54-01:07 

  Bass guitar out and in with bass notes on the guitar  

 |--------0---------------0---------------0--------------0---------| 
 |------3------3--------3------3--------3-----3--------3-----3-----| 
 |----3----------3----2----------2----1---------1----1---------1---| 
 |--0--------0------0--------0------0-------0------0-------0-------| 
 |-----------------------------------------------------------------| 
 |-----------------------------------------------------------------| 

 |--------5--------------5---------------5--------------5----------| 
 |------8-----8--------8------8--------8-----8--------8-----8------| 
 |----8---------8----7----------7----6---------6----6---------6----| 
 |--0-------0------0--------0------0-------0------0-------0--------|  
 |-----------------------------------------------------------------| 
 |-----------------------------------------------------------------| 
     
  Electric guitar 1 01:08-01:33 
   
  Bass-guitar in again and no bass notes for the guitar. 

 |--------0---------------0---------------0--------------0---------| 
 |------3------3--------3------3--------3-----3--------3-----3-----| 
 |----3----------3----2----------2----1---------1----1---------1---| 
 |-----------------------------------------------------------------| 
 |-----------------------------------------------------------------| 
 |-----------------------------------------------------------------| 

 |--------5--------------5---------------5--------------5----------| 
 |------8-----8--------8------8--------8-----8--------8-----8------| 
 |----8---------8----7----------7----6---------6----6---------6----| 
 |-----------------------------------------------------------------|  
 |-----------------------------------------------------------------| 
 |-----------------------------------------------------------------| 

 |--------0---------------0---------------0--------------0---------| 
 |------3------3--------3------3--------3-----3--------3-----3-----| 
 |----3----------3----2----------2----1---------1----1---------1---| 
 |-----------------------------------------------------------------| 
 |-----------------------------------------------------------------| 
 |-----------------------------------------------------------------| 
  
  Notice the "last" chord is played only once here. 

 |--------5--------------5---------------5--------| 
 |------8-----8--------8------8--------8-----8----| 
 |----8---------8----7----------7----6---------6--| 
 |------------------------------------------------| 
 |------------------------------------------------| 
 |------------------------------------------------| 

  Electric guitar 1 01:34-01:52 
   
 |--------0---------------0---------| 
 |------3------3--------3------3----| 
 |----3----------3----2----------2--| 
 |----------0---------------0-------| x 4 
 |----------------------------------| 
 |----------------------------------| 


  Acoustic guitar 1 coming in at 00:14-00:41 

 ||--13-10-12-10-13-10-12-10--------------------------------------| 
 ||---------------------------10----------10------------8---------| 
 ||------------------------------10-12-10----10-12-10-----9-10-9--| 
 ||---------------------------------------------------------------| 
 ||---------------------------------------------------------------| 
 ||---------------------------------------------------------------| 

 |-------------------------------8----------8------------| 
 |--8--------8--------8------------10-11-10---10-11-10---| 
 |----9-10-9---9-10-9---9-10-9---------------------------| 
 |-------------------------------------------------------| 
 |-------------------------------------------------------| 
 |-------------------------------------------------------| 


 ||---------------||      || 
 ||--10-----------||      || 
 ||-----10-12-10--||      || 
 ||---------------|| x 6  || x 2 
 ||---------------||      || 
 ||---------------||      ||  

  Acoustic guitar 1 00:42-00:53 

 |--13-10-12-10-13-10-12-10----------------------------------------| 
 |---------------------------10----------10------------8-----------| 
 |------------------------------10-12-10----10-12-10-----9-10-9----| 
 |-----------------------------------------------------------------| 
 |-----------------------------------------------------------------| 
 |-----------------------------------------------------------------| 

 |-------------------------------8----------8------------| 
 |--8--------8--------8------------10-11-10---10-11-10---| 
 |----9-10-9---9-10-9---9-10-9---------------------------| 
 |-------------------------------------------------------| 
 |-------------------------------------------------------| 
 |-------------------------------------------------------| 
  
   This section is now only played four times. 

 ||---------------||       
 ||--10-----------||       
 ||-----10-12-10--||       
 ||---------------|| x 4   
 ||---------------||       
 ||---------------||   

 Acoustic guitar 1 00:53-01:21   

 ||--13-10-12-10-13-10-12-10---------------------------------------| 
 ||---------------------------10----------10------------8----------| 
 ||------------------------------10-12-10----10-12-10-----9-10-9---| 
 ||----------------------------------------------------------------| 
 ||----------------------------------------------------------------| 
 ||----------------------------------------------------------------| 

 |-------------------------------8----------8------------| 
 |--8--------8--------8------------10-11-10---10-11-10---| 
 |----9-10-9---9-10-9---9-10-9---------------------------| 
 |-------------------------------------------------------| 
 |-------------------------------------------------------| 
 |-------------------------------------------------------| 


 ||---------------||      || 
 ||--10-----------||      || 
 ||-----10-12-10--||      || 
 ||---------------|| x 6  || x 2 
 ||---------------||      || 
 ||---------------||      ||  

 Acoustic guitar 1 01:22-01:33 

 |--13-10-12-10-13-10-12-10--------------------------------------| 
 |---------------------------10----------10------------8---------| 
 |------------------------------10-12-10----10-12-10-----9-10-9--| 
 |---------------------------------------------------------------| 
 |---------------------------------------------------------------| 
 |---------------------------------------------------------------| 

 |-------------------------------8----------8------------| 
 |--8--------8--------8------------10-11-10---10-11-10---| 
 |----9-10-9---9-10-9---9-10-9---------------------------| 
 |-------------------------------------------------------| 
 |-------------------------------------------------------| 
 |-------------------------------------------------------| 
  
   This section is once again only played four times. 

 ||---------------||       
 ||--10-----------||       
 ||-----10-12-10--||       
 ||---------------|| x 4   
 ||---------------||       
 ||---------------||   

  
 Acoustic guitar 1 01:34-01:52 

  
 |--13-10-12-10-13-10-12-10--||---------------------------|| 
 |---------------------------||--10----------10-----------|| 
 |---------------------------||-----10-12-10----10-12-10--|| 
 |---------------------------||---------------------------|| x 6 
 |---------------------------||---------------------------|| 
 |---------------------------||---------------------------|| 
  
 |-----| 
 |-----| 
 |-----| 
 |--7--| 
 |-----| 
 |-----| 
 |-----| 
  

   Acoustic guitar 2 coming in at 00:42-00:54 
  
 |----------10--------------------------10------------------| 
 |------10------10------10----------10------10------10------| 
 |--12--------------10----------12--------------10----------| 
 |--------------------------12--------------------------12--| 
 |----------------------------------------------------------| 
 |----------------------------------------------------------| 
 |----------------------------------------------------------| 

 |----------------------------------------------------------| 
 |----------------------------------------------------------| 
 |----------------------------------------------------------| 
 |--9-----------9-----------9-----------9-------------------| 
 |----10-12-10----10-12-10----10-12-10----10-12-10----------| 
 |----------------------------------------------------------| 
 |----------------------------------------------------------| 

 |----------10--------------------------10------------------| 
 |------10------10------10----------10------10------10------| 
 |--12--------------10----------12--------------10----------| 
 |--------------------------12--------------------------12--| 
 |----------------------------------------------------------| 
 |----------------------------------------------------------| 
 |----------------------------------------------------------| 

 |--8-----------8-----------| 
 |----10-11-10----10-11-10--| 
 |--------------------------| 
 |--------------------------| 
 |--------------------------| 
 |--------------------------| 
 |--------------------------| 

   
  Acoustic guitar 2 01:08-01:33 


 |----------10--------------------------10------------------| 
 |------10------10------10----------10------10------10------| 
 |--12--------------10----------12--------------10----------| 
 |--------------------------12--------------------------12--| 
 |----------------------------------------------------------| 
 |----------------------------------------------------------| 
 |----------------------------------------------------------| 

 |----------------------------------------------------------| 
 |----------------------------------------------------------| 
 |----------------------------------------------------------| 
 |--9-----------9-----------9-----------9-------------------| 
 |----10-12-10----10-12-10----10-12-10----10-12-10----------| 
 |----------------------------------------------------------| 
 |----------------------------------------------------------| 

 |----------10--------------------------10------------------| 
 |------10------10------10----------10------10------10------| 
 |--12--------------10----------12--------------10----------| 
 |--------------------------12--------------------------12--| 
 |----------------------------------------------------------| 
 |----------------------------------------------------------| 
 |----------------------------------------------------------| 

 ||--8-----------8-----------|| 
 ||----10-11-10----10-11-10--|| 
 ||--------------------------|| 
 ||--------------------------|| 
 ||--------------------------|| x 2 
 ||--------------------------|| 
 ||--------------------------|| 

 |----------10--------------------------10------------------| 
 |------10------10------10----------10------10------10------| 
 |--12--------------10----------12--------------10----------| 
 |--------------------------12--------------------------12--| 
 |----------------------------------------------------------| 
 |----------------------------------------------------------| 
 |----------------------------------------------------------| 

 |----------------------------------------------------------| 
 |----------------------------------------------------------| 
 |----------------------------------------------------------| 
 |--9-----------9-----------9-----------9-------------------| 
 |----10-12-10----10-12-10----10-12-10----10-12-10----------| 
 |----------------------------------------------------------| 
 |----------------------------------------------------------| 

 |----------10--------------------------10------------------| 
 |------10------10------10----------10------10------10------| 
 |--12--------------10----------12--------------10----------| 
 |--------------------------12--------------------------12--| 
 |----------------------------------------------------------| 
 |----------------------------------------------------------| 
 |----------------------------------------------------------| 

 |--8-----------8-----------| 
 |----10-11-10----10-11-10--| 
 |--------------------------| 
 |--------------------------| 
 |--------------------------| 
 |--------------------------| 
 |--------------------------| 
  
 Acoustic guitar 2 01:36-01:45 
  
 |---------| 
 |---------| 
 |--10--9--| 
 |---------| 
 |---------| 
 |---------| 
 |---------| 

  Acoustic guitar 2 01:46-01:50 

  Let ring (Dm) 

 |--5--| 
 |--6--| 
 |--7--| 
 |-----| 
 |-----| 
 |-----| 
    	

enviado porenviado por: bombaXXX
cifra enviadaCorrigida por: sem correções
logo top cifrasComente
ico música do artistaMúsicas deste artista
ico curtiuCurtiu?
ico destaqueDestaque
Petaxxon Comunicação Online

Cifras.com.br - Melhor e mais completo site de cifras e tablaturas do Brasil Mais de 1 milhão de acordes de músicas cadastradas desde 2003
As informações contidas no nosso site são colaborações de seus usuários e podem conter erros, sendo assim, não nos responsabilizamos sobre nenhuma destas.

close
menos
mais
close
Cor dos acordes:

Cor da letra:

close
Alinhar acordes a direita Alinhar acordes a esquerda Alinhar acordes em baixo Alinhar acordes no topo
close
  Mostrar todos os acordes Esconder acordes muito fáceis Esconder acordes fáceis Esconder acordes intermediários
redimensionar
glossário