Cifras e Tablaturas
Pierre Van Dormael

Pierre Van Dormael

Sous Les Draps - Mrnobody

Cifras Cancelar Versão de Impressão Print

Pierre Van Dormael - Sous Les Draps - Mrnobody

Tom:

  			

   
 

  * Sous Les Draps version 1 00:57:30 in movie * 

  Guitar 1 
                                                             
 |-----------0------------------0-----------------0------------------0---------| 
 |-------0-------0----------0-------0---------0-------0------------------------| 
 |-----0---0---0----------0---0---0----0----0---0---0------------4-------4-----| 
 |---2--------------2--0---------------------------------------4---4---4---4---| x 3 
 |---------------------------------------3---------------3--2------------------| 
 |-----------------------------------------------------------------------------| 

 |-----------0------------------0-----------------0--------------0---0---0-----| 
 |-------0-------0----------0-------0---------0-------0------------------------| 
 |-----0---0---0----------0---0---0----0----0---0---0----0-----1---1---1---1---| 
 |---2--------------2--0------------------------------------0------------------| 
 |---------------------------------------3-------------------------------------| 
 |-----------------------------------------------------------------------------| 

                      Barre with index on these two chords 
                                     (Dm-shape) 
 |----------0-----------------2---------------3-----------------0--------------| 
 |------1--------1--------4-------4-------5--------5--------0-------0----------| 
 |--------0----0--------2---2---2-------4---4----4--------0---0---0---0--------| 
 |----2------------------------------2---------------2-------------------------| 
 |--0--------------0--2---------------------------------4----------------------| 
 |-----------------------------------------------------------------------------| 

 |----------0-----------------0------------------------------------------------| 
 |------0-----------------1--------------------------------------------0-------| 
 |----0---0---0----0----0---0---0----0------3--------3--------2------2---2-----| 
 |----------------------------------------2---2----2---2----1---1--1-----------| 
 |--3------------2----0--------------------------3--------2--------------------| 
 |---------------------------------3----2--------------------------------------| 

  Guitar 2 Melody/Solo 
                                          Quick slides to and from the 7 
 |----------------5-----------------------7-5s7-7s5----------------------------| 
 |----5-7-8-----7---8-7-5-------5-7-8---------------8-5------------------------| 
 |--4-------------------------4------------------------------------------------| 
 |-----------------------------------------------------------------------------| 
 |-----------------------------------------------------------------------------| 
 |-----------------------------------------------------------------------------| 

 |--8-7------7----------7-5s7-5-----------------------------5------------------| 
 |------10-8---8-10-------------8-5-------5-7-8-----5h7-8-7---8-7--------------| 
 |--------------------------------------4--------------------------------------| 
 |-----------------------------------------------------------------------------| 
 |-----------------------------------------------------------------------------| 
 |-----------------------------------------------------------------------------| 

 |-----------------------------------------------------------------------------| 
 |--8s10-8-7-5-----------------------------------------------------------------| 
 |-----------------------------------------------------------------------------| 
 |-----------------------------------------------------------------------------| 
 |-----------------------------------------------------------------------------| 
 |-----------------------------------------------------------------------------| 
 |-----------------------------------------------------------------------------| 

  Tuning - Half step down 

   
 

  * Sous Les Draps version 2 01:24:00 in movie * 

  Guitar 1 

 |-----------0------------------0-----------------0------------------0---------| 
 |-------0-------0----------0-------0---------0-------0------------------------| 
 |-----0---0---0----------0---0---0----0----0---0---0------------4-------4-----| 
 |---2--------------2--0---------------------------------------4---4---4---4---| x 3 
 |---------------------------------------3---------------3--2------------------| 
 |-----------------------------------------------------------------------------| 

                                          --  Different from version 1  -- 
 |-----------0------------------0-----------------0---0----0-------0-----------| 
 |-------0-------0----------0-------0---------0----------------0-------0-------| 
 |-----0---0---0----------0---0---0----0----0---0---0---0----1---1---1---1-----| 
 |---2--------------2--0-----------------------------------0-------------------| 
 |----------------------------------------3------------------------------------| 
 |-----------------------------------------------------------------------------| 

    --------    Different from version 1      --------                  
                                     (Dm-shape barre) 
 |---------------------------2--------------3--------0----------0--------------| 
 |------1---1---1--------0-------0--------5--------5--------0-------0----------| 
 |----0---0---0---0----2---2---2---2----4--------4--------0---0---0----0-------| 
 |------------------------------------2--------0-------------------------------| 
 |--0----------------2----------------------------------4----------------------| 
 |-----------------------------------------------------------------------------| 

 |----------0-----------------0------------------------------------------------| 
 |------0-----------------1--------------------------------------------0-------| 
 |----0---0---0----0----0---0---0----0------3--------3--------2------2---2-----| 
 |----------------------------------------2---2----2---2----1---1--1-----------| 
 |--3------------2----0--------------------------3--------2--------------------| 
 |---------------------------------3----2--------------------------------------| 
    	

enviado porenviado por: PAULLET3
cifra enviadaCorrigida por: sem correções
logo top cifrasComente
ico música do artistaMúsicas deste artista
ico curtiuCurtiu?
ico destaqueDestaque
Petaxxon Comunicação Online

Cifras.com.br - Melhor e mais completo site de cifras e tablaturas do Brasil Mais de 1 milhão de acordes de músicas cadastradas desde 2003
As informações contidas no nosso site são colaborações de seus usuários e podem conter erros, sendo assim, não nos responsabilizamos sobre nenhuma destas.

close
menos
mais
close
Cor dos acordes:

Cor da letra:

close
Alinhar acordes a direita Alinhar acordes a esquerda Alinhar acordes em baixo Alinhar acordes no topo
close
  Mostrar todos os acordes Esconder acordes muito fáceis Esconder acordes fáceis Esconder acordes intermediários
redimensionar
glossário