Cifras e Tablaturas
Piers Faccini

Piers Faccini

Broken Mirrors

Cifras Cancelar Versão de Impressão
cifras

Piers Faccini - Broken Mirrors

fixar na tela  
Exibindo: vídeo-aula ver clipes redimensionar
  
Tuning: Open G minor (From low to high: D-G-D-G-A#-D) 
Capo: 4 fret 
Picking pattern: 5\2\3 

I wrote also the "Chords" to better figure out the finger position. 



Intro   “I was only a tide apart…” 


e|------------------------------------------------------------------------------------| 
B|---0---------2-----------4--------2-------------------------------------------------| 
G|-----0----------0-----------0--------0----------------------------------------------| 
D|------------------------------------------------------------------------------------| 
A|-0--------2--------2--3--------2--------2-------------------------------------------| 
E|------------------------------------------------------------------------------------| 

(Chords) 

e|---------------------------------------------------------------------------------| 
B|--0------2----4----2-------------------------------------------------------------| 
G|--0------0----0----0-------------------------------------------------------------| 
D|---------------------------------------------------------------------------------| 
A|--0------2----3----2-------------------------------------------------------------| 
E|---------------------------------------------------------------------------------| 



(Live Variation) 

e|-------------------------------------------0----------------------------------------| 
B|---0---------2-----------4-----------0--2-----2--0----------------------------------| 
G|-----0----------0-----------0-------------------------------------------------------| 
D|------------------------------------------------------------------------------------| 
A|-0--------2--------2--3-------------------------------------------------------------| 
E|------------------------------------------------------------------------------------| 

________________________________________________________________________________________ 

Verse   “The whole plane shattered for me…” 

X2 

e|-------------------------------------------------------------------------------------| 
B|----5--------8-----------4--------2--------------------------------------------------| 
G|------0--------------------0--------0------------------------------------------------| 
D|-------------------------------------------------------------------------------------| 
A|-5--------7--------7--3--------2--------2--------------------------------------------| 
E|-------------------------------------------------------------------------------------| 

(Chords) 

e|---------------------------------------------------------------------------------| 
B|--5----8----4----2---------------------------------------------------------------| 
G|---------------------------------------------------------------------------------| 
D|---------------------------------------------------------------------------------| 
A|--5----7----3----2---------------------------------------------------------------| 
E|---------------------------------------------------------------------------------| 

_______________________________________________________________________________________ 

Chorus   “I know that I've never been apart from you” 

e|-------------------------------------------------------------------------------------| 
B|----4--------2-----------0--------------------5--------4-----------2----------0------| 
G|-------0--------0-----------0-----2--------------0--------0-----------0----------0---| 
D|-------------------------------------3-----------------------------------------------| 
A|-3--------2--------2--0--------------------5--------3--------3--2--------2--0-------0| 
E|-------------------------------3--------3--------------------------------------------| 

e|------------------------------------------------------------------------j------------| 
B|---5--------4-----------2-----------0-----------5--------4---------------------------| 
G|------0--------0-----------0-----------0-----------0--------0---------------0--------| 
D|--------------------------------------------------------------------------4----------| 
A|5--------3--------3--2--------2--0--------0--5--------3--------3--------2------------| 
E|----------------------------------------------------------------------0--------------| 

(Chords) 

e|-------------------------------------------------------------------------------------| 
B|--4---2---0-----------------5---4---2---0--------------------------------------------| 
G|--------------2------------------------------------0---------------------------------| 
D|---------------------------------------------------4---------------------------------| 
A|--3---2---0-----------------5---3---2---0----------2---------------------------------| 
E|--------------3------------------------------------0---------------------------------| 


________________________________________________________________________________________ 

Outro   “From you…” 

e|-------------------------------------------------------------------------------------| 
B|-------------------------0-----------------------------------------------------------| 
G|----0--------2--------------0-----2--------------------------------------------------| 
D|-------0--------0--------------------0-----------------------------------------------| 
A|----------------------0--------------------------------------------------------------| 
E|-1--------3--------3-----------3--------3--------------------------------------------| 

(Chords) 

e|--------------------------------------------------------------------------------| 
B|----------0---------------------------------------------------------------------| 
G|--0---2---0---2-----------------------------------------------------------------| 
D|--1---3-------3-----------------------------------------------------------------| 
A|----------0---------------------------------------------------------------------| 
E|--1---3-------3-----------------------------------------------------------------| 
  

cifra enviadasem correções
enviado porenviada por:VsWorld
top 5 | piers faccini
top rock'n roll
Outras músicas do artista letras do(a) Piers Faccini
Top cifras »Top artistas »
Petaxxon Comunicação Online
Cifras.com.br - Melhor e mais completo site de cifras e tablaturas do Brasil
Mais de 1 milhão de acordes de músicas cadastradas desde 2003
As informações contidas no nosso site são colaborações de seus usuários e podem conter erros, sendo assim, não nos responsabilizamos sobre nenhuma destas.
close
menos
mais
close
Cor dos acordes:

Cor da letra:

 

save
close
close
 
redimensionar