Cifras e Tablaturas
Pink Floyd

Pink Floyd

Fat Old Sun (solo)

Cifras Cancelar Versão de Impressão

Pink Floyd - Fat Old Sun (solo)

Tom:

  			SOLO: 
e-|---------------------------------------------------------| 
B-|---------------------------------------------------------| 
G-|---------------------------------------------------------| 
D-|---------------------------------7---7h9-----------------| 
A-|-------------5--5h7--5---7--7/9-----------8---10--10/12--| 
E-|--3----5--7----------------------------------------------| 
 
e-|---------------------------------------------------------| 
B-|---------------------------------------------------------| 
G-|------10--10-----10----------10h12--12h14--12h10---------| 
D-|--10--10--10h12--10---10h12------------------------------| 
A-|---------------------------------------------------------| 
E-|---------------------------------------------------------| 
 
e-|---------------------------------------------------------| 
B-|---------------------------------------------------------| 
G-|---------------------------------------------------------| 
D-|--12--10-----------------------------12--12--12h14--12---| 
A-|----------12--10h12--10---12--12/14----------------------| 
E-|---------------------------------------------------------| 
 
e-|---------------------------------------------------------| 
B-|---------------------------------------------------------| 
G-|------------14--14--14h16--------------------------------| 
D-|--14--14/16----------------15-14~--10--10h12--10h12--10--| 
A-|---------------------------------------------------------| 
E-|---------------------------------------------------------| 
 
e-|---------------------------------------------------------| 
B-|---------------------------------------------------------| 
G-|---------------------------------------------------------| 
D-|--5/7---5------------------------------------------------| 
A-|-----------7--5---------------------5--5h7--5h7--5-------| 
E-|-----------------7---5---3--5--5h7-----------------------| 
 
e-|---------------------------------------------------------| 
B-|---------------------------------------------------------| 
G-|--------------------------------------------10-----10----| 
D-|-------7h9--9b(10)b9--7-----7--9---10--(10)-10h12--10h12-| 
A-|--7h9--------------------9-------------------------------| 
E-|---------------------------------------------------------| 
 
e-|---------------------------------------------------------| 
B-|---------------------------------------------------------| 
G-|--10--------------10--10---10----------------------------| 
D-|--10h12--12b(13)--10--10---10h12--10-----5---------------| 
A-|----------------------------------10h12--5h7--5--X3--5---| 
E-|---------------------------------------------------------| 
 
e-|---------------------------------------------------------| 
B-|---------------------------------------------------------| 
G-|---------------------------------------------------------| 
D-|---------------------------------------------------------| 
A-|--5\3--3\2--0--0h2--0h2--2b(3)-2--0--2---------5h7-------| 
E-|----------------------------------------1----------------| 
 
e-|---------------------------------------------------------| 
B-|---------------------------------------------------------| 
G-|--------10-----10---------10--10-----------10------------| 
D-|-10-----10h12--10h12b(13)-10--10----10h12------12--------| 
A-|-10h12---------------------------------------------------| 
E-|---------------------------------------------------------| 
   overdrive 
e-|---------------------------------------------------------| 
B-|---------------------------------------------------------| 
G-|-12b(14)==(14)=(14)==(14)b12-----14b(16)====(16)---------| 
D-|---------------------------------------------------------| 
A-|---------------------------------------------------------| 
E-|---------------------------------------------------------| 
 
e-|---------------------------------------------------------| 
B-|---------------------------------------------------------| 
G-|-14b(16)b14b(16)b14--12b(14)--14b(16)==14---14b(16)=(16)-| 
D-|---------------------------------------------------------| 
A-|---------------------------------------------------------| 
E-|---------------------------------------------------------| 
 
e-|---------------------------------------------------------| 
B-|---------------------------------------------------------| 
G-|-14b(16)b14b(16)b14--12b(14)--14b(16)==14---14b(16)=(16)-| 
D-|---------------------------------------------------------| 
A-|---------------------------------------------------------| 
E-|---------------------------------------------------------| 
 
e-|---------------------------------------------------------| 
B-|---------------------------------------------------------| 
G-|--12b(14)==(14)b12--12--12-------------------------------| 
D-|-----------------------------10h12h14--14--14h12--12-----| 
A-|---------------------------------------------------------| 
E-|---------------------------------------------------------| 
 
e-|---------------------------------------------------------| 
B-|---------------------------------------------------------| 
G-|---------------------------------------------------------| 
D-|--12h14-12--14--12\10/12\10------------------------------| 
A-|-----------------------------12h10-------------10--10h12-| 
E-|------------------------------------12--10/12------------| 
 
e-|---------------------------------------------------------| 
B-|---------------------------------------------------------| 
G-|---------------------------------------------------------| 
D-|--------12h14---16-14-12------7~-6--7~-6--7-6-7-6--------| 
A-|-12/14---------------------------------------------------| 
E-|---------------------------------------------------------| 
 
e-|---------------------------------------------------------| 
B-|---------------------------------------------------------| 
G-|---------------------------------------------------------| 
D-|--3h5--5--3\2------------------------(10)b9--7-----------| 
A-|---------------5--3--3h5--3h5--5~---------------12-------| 
E-|----------------------------------------------------12---| 
 
e-|---------------------------------------------------------| 
B-|---------------------------------------------------------| 
G-|---------------------------------------------------------| 
D-|------------------------------12h14---(15)b14--12--------| 
A-|----------------------12h14------------------------------| 
E-|-10h12--10h12--12/14-------------------------------------| 
 
e-|---------------------------------------------------------| 
B-|---------------------------------------------------------| 
G-|---------------------------------------------------------| 
D-|-12h14--14b(15)==(15)--(15)b14--(15)b14--14---12---------| 
A-|--------------------------------------------------12-----| 
E-|---------------------------------------------------------| 
 
e-|---------------------------------------------------------| 
B-|---------------------------------------------------------| 
G-|---------------------------------------------------------| 
D-|--------10------10h12--12---12\10------------------------| 
A-|-10/12------12---------------------12--12--10/12--12-----| 
E-|---------------------------------------------------------| 
 
e-|---------------------------------------------------------| 
B-|---------------------------------------------------------| 
G-|--------------------------------10-----10-----10---------| 
D-|--7--5--------------------------10h12--10h12--10---------| 
A-|--------7\5-5--5--5h7b(8)-/-12---------------------------| 
E-|---------------------------------------------------------| 
                         slowly fade out... 
e-|---------------------------------------------------------| 
B-|-------------------------------------------16h13-16b(18)-| 
G-|--10-----10-----10---------------------------------------| 
D-|--10h12--10h12--10-----10b(12)====(12)b10----------------| 
A-|---------------------------------------------------------| 
E-|---------------------------------------------------------| 
 
e-|--X16/18--15---------------------------------------------| 
B-|--X16/18--15---------------------------------------------| 
G-|----------------------------------10--10---9--10--9------| 
D-|---------------------------10h12--10--10--10---------8---| 
A-|--------------------10/12--------------------------------| 
E-|----------------12---------------------------------------| 
 

    	
fixar
fixar inscrever-se

enviado porenviado por: - kepler -
cifra enviadaCorrigida por: sem correções
logo top cifrasComente
ico música do artistaMúsicas deste artista
ico curtiuCurtiu?
ico destaqueDestaque
Petaxxon Comunicação Online

Cifras.com.br - Melhor e mais completo site de cifras e tablaturas do Brasil Mais de 1 milhão de acordes de músicas cadastradas desde 2003
As informações contidas no nosso site são colaborações de seus usuários e podem conter erros, sendo assim, não nos responsabilizamos sobre nenhuma destas.

close
menos
mais
close
Cor dos acordes:

Cor da letra:

close
Alinhar acordes a direita Alinhar acordes a esquerda Alinhar acordes em baixo Alinhar acordes no topo
close
  Mostrar todos os acordes Esconder acordes muito fáceis Esconder acordes fáceis Esconder acordes intermediários
redimensionar
glossário