Cifras e Tablaturas
P.O.D.

P.O.D.

Rise Of Nwo

Cifras Cancelar Versão de Impressão
cifras

P.O.D. - Rise Of Nwo

fixar na tela  
Exibindo: vídeo-aula ver clipes redimensionar
  
Tuning: Drop C 

Intro: 

D|-----------------------------------------------------------------------------| 
A|*----------------------------------------------------------------------------| 
F|-7--7-7-7-7-7--7-7-7-7-7/8-8-8-8-8-8--8-8-8-8-8/12-11-11-11-11-11-11-11-11/14| 
C|-----------------------------------------------------------------------------| 
G|*5--5-5-5-5-5--5-5-5-5-5/6-6-6-6-6-6--6-6-6-6-6/10-9--9--9--9--9--9--9---9/12| 
C|-----------------------------------------------------------------------------| 

D|-------------------------------| 
A|------------------------------*| 
F|14-14-14-14-14/17-17-17-17-17--| 
C|-------------------------------| 
G|12-12-12-12-12/15-15-15-15-15-*| 
C|-------------------------------| Repeat x2 

D|---------------------------------------------------------------------------| 
A|*-------------------------------------------------------------------------*| 
F|---------------------------------------------------------------------------| 
C|---0-0-1-0-3-0-5---0-0-1-0-3-0-8-7-0-0-1-0-3-0-5---0-0-3-0-5-0-8-----------| 
G|*5-0-0-1-0-3-0-5-5-0-0-1-0-3-0-6-5-0-0-1-0-3-0-5-5-0-0-3-0-5-0-8----------*| 
C|-0-0-0-1-0-3-0-5-0-0-0-1-0-3-0-----0-0-1-0-3-0-5-0-0-0-3-0-5-0-8-----------| Repeat x2 
     x x   x   x     x x   x   x     x x   x   x     x x   x   x 

        

Verses 1 & 2: 

(Guitar 1)                                (Guitar 2) 
D|--------------------------|             D|-------------------------| 
A|*------------------------*|             A|*-----------------------*| 
F|--------------------------|             F|-------7-6~~-------------| 
C|-------5-4~~--------------|             C|---7-8------8-7~~--5-7~~-| 
G|*--5-6------6-5~~--3-5~~-*|             G|*0----------------------*| 
C|-0------------------------| Repeat x4   C|-------------------------| 

D|-------------------|--------------------------| 
A|-------------------|*------------------------*| 
F|-------------------|--------------------------| 
C|-------5-4~~-------|-------5-4~~--------------| 
G|---5-6------5~~-(3)|*--5-6------6-5~~--3-5~~-*| 
C|-0---------------7-|-0------------------------| Repeat x 4 
  Sitar Interlude 

Chorus: 


D|---------------------------------------------------------------------------| 
A|*-------------------------------------------------------------------------*| 
F|---------------------------------------------------------------------------| 
C|---0-0-1-0-3-0-5---0-0-1-0-3-0-8-7-0-0-1-0-3-0-5---0-0-3-0-5-0-8-----------| 
G|*5-0-0-1-0-3-0-5-5-0-0-1-0-3-0-6-5-0-0-1-0-3-0-5-5-0-0-3-0-5-0-8----------*| 
C|-0-0-0-1-0-3-0-5-0-0-0-1-0-3-0-----0-0-1-0-3-0-5-0-0-0-3-0-5-0-8-----------| Repeat x2 
     x x   x   x     x x   x   x     x x   x   x     x x   x   x 

Pre-Bridge: 

D|-----------------------------------------------------------------------------| 
A|-----------------------------------------------------------------------------| 
F|-7--7-7-7-7-7--7-7-7-7-7/8-8-8-8-8-8--8-8-8-8-8/12-11-11-11-11-11-11-11-11/14| 
C|-----------------------------------------------------------------------------| 
G|-5--5-5-5-5-5--5-5-5-5-5/6-6-6-6-6-6--6-6-6-6-6/10-9--9--9--9--9--9--9---9/12| 
C|-----------------------------------------------------------------------------| 


D|-------------------------------| 
A|-------------------------------| 
F|14-14-14-14-14/17-17-17-17-17--| 
C|-------------------------------| 
G|12-12-12-12-12/15-15-15-15-15--| 
C|-------------------------------|  

Solo: 
D|--------------------------------------------------------------------------------------------------------| 
A|--------------------------------------------------------------------------------------------------------| 
F|--------------------------------------------------------------------------------------------------------| 
C|--------------------------------------------------------------------------------------------------------| 
G|-17-17-17-17-17-17-17-17-17-17-17-17-17-15-13/15-15-15-15-15-15-15-15-15-15-15-15-15-15-13-12-12/13-12~~| 
C|--------------------------------------------------------------------------------------------------------| 

D|----------15--17--18--20--21b------------------------------------------------------------------| 
A|-13h15p13---------------------20-20-20-20-20-20-20-20--19~--16-16-16--15-15-15-15-15-15-15-15\-| 
F|-----------------------------------------------------------------------------------------------| 
C|-----------------------------------------------------------------------------------------------| 
G|-----------------------------------------------------------------------------------------------| 
C|-----------------------------------------------------------------------------------------------| 

End: 

D|-----------------------------------------------------------------------------| 
A|*---------------------------------------------------------------------------*| 
F|-----------------------------------------------------------------------------| 
C|---0-0-1-0-3-0-5---0-0-1-0-3-0-8-7-0-0-1-0-3-0-5---0-0-3-0-5-0-8-------------| 
G|*5-0-0-1-0-3-0-5-5-0-0-1-0-3-0-6-5-0-0-1-0-3-0-5-5-0-0-3-0-5-0-8------------*| 
C|-0-0-0-1-0-3-0-5-0-0-0-1-0-3-0-----0-0-1-0-3-0-5-0-0-0-3-0-5-0-8-------------| Repeat x4 
     x x   x   x     x x   x   x     x x   x   x     x x   x   x 

************************************ 

| /   slide up 
| \   slide down 
| h   hammer-on 
| p   pull-off 
| ~   vibrato 
| +   harmonic 
| x   Mute note 
| b   Bend 
| pb  Pre-bend 
| br  Bend release 
| pbr Pre-bend release 
| brb Bend release bend 

************************************ 
  

cifra enviadasem correções
enviado porenviada por:jessgomes
top 5 | p.o.d.
top rock'n roll
Outras músicas do artista letras do(a) P.O.D.
Top cifras »Top artistas »
Petaxxon Comunicação Online
Cifras.com.br - Melhor e mais completo site de cifras e tablaturas do Brasil
Mais de 1 milhão de acordes de músicas cadastradas desde 2003
As informações contidas no nosso site são colaborações de seus usuários e podem conter erros, sendo assim, não nos responsabilizamos sobre nenhuma destas.
close
menos
mais
close
Cor dos acordes:

Cor da letra:

 

save
close
close
 
redimensionar