Cifras e Tablaturas
Propagandhi

Propagandhi

Adventures In Zoochosis

Cifras Cancelar Versão de Impressão

Propagandhi - Adventures In Zoochosis

Tom: C#

  			
Intro 
d#||-------10-------10-------10-------10-------10----| 
A#||----10-------10-------10-------10-------10-------| 
F#||-------------------------------------11------11--| 
C#||-12-------12-------12-------12-------------------| 
G#||-------------------------------------------------| 
C#||-------------------------------------------------| 

d#||-------10-------10-------10-------10------10-----| 
A#||----10-------10-------10-------10------10--------| 
F#||-12-------12-------12-------12-------9-------9---| 
C#||-------------------------------------------------| 
G#||-------------------------------------------------| 
C#||-------------------------------------------------| 

0:40 
d#||-------------| 
A#||-------------| 
F#||-------------| 
C#||-6-6h7p6-----| 
G#||----------7--| 
C#||-------------| 

d#||-----------------------------------------------------| 
A#||-----------------------------------------------------| 
F#||-----------------------------------------------------| 
C#||--------11--------11--------11--------11--6-6h7p6----| 
G#||-9--9-9-----9-9-9-----9-9-9-----9-9-9-------------7--| 
C#||-----------------------------------------------------| 

d#||-------------------------------------------------| 
A#||-------------------------------------------------| 
F#||-------------------------------------------------| 
C#||--------9--------9--------9--------9--6-6h7p6----| 
G#||-7--7-7----7-7-7----7-7-7----7-7-7------------7--| 
C#||-------------------------------------------------| 

d#||-------------------------------------------------| 
A#||-------------------------------------------------| 
F#||-------------------------------------------------| 
C#||--------7--------7--------7--------7--6-6h7p6----| 
G#||-5--5-5----5-5-5----5-5-5----5-5-5------------7--| 
C#||-------------------------------------------------| 

d#||-------------------------------------------------| 
A#||-------------------------------------------------| 
F#||-------------------------------------------------| 
C#||--------9--------9--------9--------9--6-6h7p6----| 
G#||-7--7-7----7-7-7----7-7-7----7-7-7------------7--| 
C#||-------------------------------------------------| 

repeat until 1:08 
d#||-------------------------------------------------| 
A#||-------------------------------------------------| 
F#||-------------------------------------------------| 
C#||--------9--------9--------9--------9-------------| 
G#||-7--7-7----7-7-7----7-7-7----7-7-7---------------| 
C#||-------------------------------------------------| 

1:12 
Guitar #1 
d#||------------------------------| 
A#||------------------------------| 
F#||------------------------------| 
C#||------------------------------| 
G#||------------------------------| 
C#||-0-0-0-0---0-0-0-0-0--0-0-0---| 
pm   x x x x   x x x x x  x x x     

Guitar #2 comes in at 1:22 
d#||-----------------------------------| 
A#||-----3--------3------3--------3----| 
F#||---2--------2------2--------2------| 
C#||-0--------4------5--------2--------| 
G#||-----------------------------------| 
C#||-----------------------------------| 

1:43 
d#||---------------------------|-----------------| 
A#||-8-8-8-8---7-7-7-----------|--8--7---5--3----| 
F#||---------------------------|--4--4---3--3----| 
C#||-9-9-9-9---7-7-7---7---7---|--5--5-----------| 
G#||-7-7-7-7---5-5-5---5---5---|---------5--5----| 
C#||-------------------5---5---|-----------------| 

Verse 
d#||----------------------------------| 
A#||-3-3--3-3---3-3-------------------| 
F#||-4-4--4-4---4-4-------------------| 
C#||-4-4--4-4---4-4----------7--------| 
G#||-2-2--2-2---2-2----------4---4----| 
C#||-----------------------------4----| 

d#||-------------------------------------------| 
A#||------------3-3---3-3----------------------| 
F#||-4-4--4-4---4-4---4-4---7-7--7-7-----------| 
C#||-4-4--4-4---4-4---4-4---7-7--7-7---7-------| 
G#||-2-2--2-2---2-2---2-2---5-5--5-5---4-------| 
C#||---------------------------------------4---| 

d#||-------------------------------------------| 
A#||------------3-3---3-3----------------------| 
F#||-4-4--4-4---4-4---4-4---7-7--7-7-----------| 
C#||-4-4--4-4---4-4---4-4---7-7--7-7---7---7---| 
G#||-2-2--2-2---2-2---2-2---5-5--5-5---4---4---| 
C#||-------------------------------------------| 

2:01 
d#||-------------------------|-------------------| 
A#||-------------------------|-------------------| 
F#||-------2-----------2-----|-7--6--7--6--7--6--| 
C#||---0-----------0---------|-7--7--7--7--7--7--| 
G#||-5---5----5--4---4----4--|-5--5--5--5--5--5--| 
C#||-------------------------|-5--5--5--5--5--5--| 
pm   x x x       x x x  

d#||-------------------------| 
A#||-------------------------| 
F#||-------2-----------2-----| 
C#||---0-----------0---------| 
G#||-5---5----5--4---4----4--| 
C#||-------------------------| 
pm   x x x       x x x  

d#||-----------------------------------------------| 
A#||------------3-3---3-3--------------------------| 
F#||-4-4--4-4---4-4---4-4---7-7--7-7---------------| 
C#||-4-4--4-4---4-4---4-4---7-7--7-7---7-7--7-7----| 
G#||-2-2--2-2---2-2---2-2---5-5--5-5---4-4--4-4----| 
C#||--------------------------------------------4--| 

d#||-------------------------------------------| 
A#||------------3-3---3-3----------------------| 
F#||-4-4--4-4---4-4---4-4---7-7--7-7-----------| 
C#||-4-4--4-4---4-4---4-4---7-7--7-7---7-------| 
G#||-2-2--2-2---2-2---2-2---5-5--5-5---4-------| 
C#||---------------------------------------4---| 

d#||-------------------------------------------| 
A#||------------3-3---3-3----------------------| 
F#||-4-4--4-4---4-4---4-4---7-7--7-7-----------| 
C#||-4-4--4-4---4-4---4-4---7-7--7-7---7---7---| 
G#||-2-2--2-2---2-2---2-2---5-5--5-5---4---4---| 
C#||-------------------------------------------| 

2:21 
d#||------------------------------| 
A#||------------------------------| 
F#||-7----------7--6--7--6--7-7---| 
C#||-7----7-----7--7--7--7--7-7---| 
G#||-5----4-----5--5--5--5--5-5---| 
C#||------------5--5--5--5--5-5---| x2 

d#||-----------------------| 
A#||-----------------------| 
F#||-7----------7--6--7----| 
C#||-7----7-----7--7--7----| 
G#||-5----4-----5--5--5----| 
C#||------------5--5--5----| 

d#||---------------------------------------------| 
A#||---------------------------------------------| 
F#||-4-4-4-4------7--7-7-7-----------------------| 
C#||-4-4-4-4---7--7--7-7-7---7--5-----11---14----| 
G#||-2-2-2-2---4--5--5-5-5---7--5-----9----12----| 
C#||-------------------------7--5-----9----11----| 

2:40 
d#||------------------------------|--------------------------| 
A#||-8-8-8-8----7-7-7-------------|--------------------------| 
F#||------------------------------|--------------------------| 
C#||-9-9-9-9----7-7-7----9-9-9----|-7-9--9--9-7-9--9--9-7-9--| 
G#||-7-7-7-7----5-5-5----5-5-5----|-5-5--5--5-5-5--5--5-5-5--| 
C#||---------------------5-5-5----|-5-5--5--5-5-5--5--5-5-5--| x2 

d#||---------------| 
A#||-8-8-8-8-------| 
F#||---------------| 
C#||-9-9-9-9-------| 
G#||-7-7-7-7-------| 
C#||---------------| 

2:51 
d#||-------------------------------------| 
A#||-15-15-15-15---14-14-14--------------| 
F#||--------------------------14-14-14---| 
C#||-16-16-16-16---14-14-14---12-12-12---| 
G#||-14-14-14-14---12-12-12---12-12-12---| 
C#||--------------------------12-12-12---| 

d#||--------------------------| 
A#||--------------------------| 
F#||--------------------------| 
C#||-7-9--9--9-7-9--9--9-7-9--| 
G#||-5-5--5--5-5-5--5--5-5-5--| 
C#||-5-5--5--5-5-5--5--5-5-5--| 

d#||-------------------------------------| 
A#||-15-15-15-15---14-14-14--------------| 
F#||--------------------------14-14-14---| 
C#||-16-16-16-16---14-14-14---12-12-12---| 
G#||-14-14-14-14---12-12-12---12-12-12---| 
C#||--------------------------12-12-12---| 

d#||-----------------| 
A#||--8--7---5--3----| 
F#||--4--4---3--3----| 
C#||--5--5-----------| 
G#||---------5--5----| 
C#||-----------------| 

2:59 
d#||--------------------------|---------------| 
A#||--------------------------|---------------| 
F#||---------------7----------|---------------| 
C#||-12-----14-----7-----7----|-12----14------| 
G#||-9------12-----5-----5----|-9-----12------| 
C#||-9------11-----------5----|-9-----11------| 

3:13 
clean 
d#||--9--10--10-----|---9--10--10-----| 
A#||-10--10--12-----|--10--10--10-----| 
F#||-12--12--12-----|--12--12--11-----| 
C#||----------------|----------12-----| 
G#||----------------|-----------------| 
C#||----------------|-----------------| 

d#||--9--10--10-----|-----------------| 
A#||-10--10--12-----|-----------------| 
F#||-12--12--12-----|-----7-----------| 
C#||----------------|--7--7--4--------| 
G#||----------------|--4--5--0--------| 
C#||----------------|--------0--------| 

distortion 
d#||--9--10--10------------10-9--------------| 
A#||-10--10--12----12-10----------10-12------| 
F#||-12--12--12------------------------------| 
C#||-----------------------------------------| 
G#||-----------------------------------------| 
C#||-----------------------------------------| 

d#||--9-10-10------------------10------------| 
A#||-10-10-10--------------10------10--------| 
F#||-12-12-11----------11--------------11----| 
C#||-------12--------------------------------| 
G#||-----------------------------------------| 
C#||----------------0------------------------|  

d#||--9--10--10------------10-9--------------| 
A#||-10--10--12----12-10----------10-12------| 
F#||-12--12--12------------------------------| 
C#||-----------------------------------------| 
G#||-----------------------------------------| 
C#||-----------------------------------------| 

d#||--9-10-10------------------10------------| 
A#||-10-10-10--------------10------10--------| 
F#||-12-12-11----------11--------------11----| 
C#||-------12--------------------------------| 
G#||-----------------------------------------| 
C#||----------------0------------------------|  

d#||---------------| 
A#||---------------| 
F#||---------------| 
C#||-12-----14-----| 
G#||-9------12-----| 
C#||-9------11-----| 

3:54 
d#||------------------------------|--------------------------| 
A#||-8-8-8-8----7-7-7-------------|--------------------------| 
F#||------------------------------|--------------------------| 
C#||-9-9-9-9----7-7-7----9-9-9----|-7-9--9--9-7-9--9--9-7-9--| 
G#||-7-7-7-7----5-5-5----5-5-5----|-5-5--5--5-5-5--5--5-5-5--| 
C#||---------------------5-5-5----|-5-5--5--5-5-5--5--5-5-5--| x2 

d#||----------------| 
A#||-8-8-8-8-8------| 
F#||----------------| 
C#||-9-9-9-9-9------| 
G#||-7-7-7-7-7------| 
C#||----------------| 

d#||-------------------------------------| 
A#||-15-15-15-15---14-14-14--------------| 
F#||--------------------------14-14-14---| 
C#||-16-16-16-16---14-14-14---12-12-12---| 
G#||-14-14-14-14---12-12-12---12-12-12---| 
C#||--------------------------12-12-12---| 

d#||--------------------------| 
A#||--------------------------| 
F#||--------------------------| 
C#||-7-9--9--9-7-9--9--9-7-9--| 
G#||-5-5--5--5-5-5--5--5-5-5--| 
C#||-5-5--5--5-5-5--5--5-5-5--| 

d#||-------------------------------------| 
A#||-15-15-15-15---14-14-14--------------| 
F#||--------------------------14-14-14---| 
C#||-16-16-16-16---14-14-14---12-12-12---| 
G#||-14-14-14-14---12-12-12---12-12-12---| 
C#||--------------------------12-12-12---| 

d#||---------------------------|-----------------| 
A#||-8-8-8-8---7-7-7-----------|--8--7---5--3----| 
F#||---------------------------|--4--4---3--3----| 
C#||-9-9-9-9---7-7-7---7---7---|--5--5-----------| 
G#||-7-7-7-7---5-5-5---5---5---|---------5--5----| 
C#||-------------------5---5---|-----------------| 

d#||-0------------------------------------------------| 
A#||-3------------------------------------------------| 
F#||-2------------------------------------------------| 
C#||-0------------------------------------------------| 
G#||--------------------------------------------------| 
C#||--------------------------------------------------| 



************************************ 

| h  Hammer-on 
| p  Pull-off 
| pm palm mute 

************************************ 
    	
fixar
fixar inscrever-se

enviado porenviado por: VsWorld
cifra enviadaCorrigida por: sem correções
logo top cifrasComente
ico música do artistaMúsicas deste artista
ico curtiuCurtiu?
ico destaqueDestaque
Petaxxon Comunicação Online

Cifras.com.br - Melhor e mais completo site de cifras e tablaturas do Brasil Mais de 1 milhão de acordes de músicas cadastradas desde 2003
As informações contidas no nosso site são colaborações de seus usuários e podem conter erros, sendo assim, não nos responsabilizamos sobre nenhuma destas.

close
menos
mais
close
Cor dos acordes:

Cor da letra:

close
Alinhar acordes a direita Alinhar acordes a esquerda Alinhar acordes em baixo Alinhar acordes no topo
close
  Mostrar todos os acordes Esconder acordes muito fáceis Esconder acordes fáceis Esconder acordes intermediários
redimensionar
glossário