Cifras e Tablaturas
Propagandhi

Propagandhi

In Flagrante Delicto

Cifras Cancelar Versão de Impressão
cifras

Propagandhi - In Flagrante Delicto

fixar na tela  
Exibindo: vídeo-aula ver clipes redimensionar
  
Intro 
d#||-----------------------------------------------------| 
A#||-----------------------------------------------------| 
F#||-----------------------------------------------------| 
C#||-----------------------------------------------------| 
G#||-2----2--2--2--2--8-5-7-5--2----2--2--5-8-7--7-10-8--| 
C#||-2----2--2--2--2--8-5-7-5--2----2--2--5-8-7--7-10-8--| 

d#||----------------------0--0-------------------------| 
A#||----------------------0--0-------------------------| 
F#||----------------------0--0-------------------------| 
C#||----------------------2--3---3--3--2---3--3--3--3--| 
G#||-10---10--10--10--10--2--3---3--3--2---3--3--3--3--| 
C#||-10---10--10--10--10--2--3---3--3--2---3--3--3--3--| 

d#||-----------------------------------------------------| 
A#||-----------------------------------------------------| 
F#||-----------------------------------------------------| 
C#||-----------------------------------------------------| 
G#||-2----2--2--2--2--8-5-7-5--2----2--2--5-8-7--7-10-8--| 
C#||-2----2--2--2--2--8-5-7-5--2----2--2--5-8-7--7-10-8--| 

d#||----------------------0--0--------------------------| 
A#||----------------------0--0-------------6--6---5\----| 
F#||----------------------0--0-------------5--5---4\----| 
C#||----------------------2--3---3--3--2---3--3---2\----| 
G#||-10---10--10--10--10--2--3---3--3--2----------------| 
C#||-10---10--10--10--10--2--3---3--3--2----------------| 

d#||-----------------------------------------------| 
A#||-----------------------------------------------| 
F#||-------7---------------------------------------| 
C#||-8-7-5-7-8-7-5---------------------------------| 
G#||-8-7-5-5-8-7-5---------------------------------| 
C#||-8-7-5---8-7-5-2-2-2---2-2-2---2-2-2---2-2-2---| 
pm                 x x x   x x x   x x x   x x x  

d#||-----------------------------------------------| 
A#||-----------------------------------------------| 
F#||-------7---------------------------------------| 
C#||-8-7-5-7-8-7-5---------------------------------| 
G#||-8-7-5-5-8-7-5---------------------------------| 
C#||-8-7-5---8-7-5-2-2-2---2-2-2-2-2-2-2-2-2-2-2-2-| 
pm                 x x x   x x x x x x x x x x x x 

d#||-----------------------------------------------| 
A#||-----------------------------------------------| 
F#||-------7---------------------------------------| 
C#||-8-7-5-7-8-7-5---------------------------------| 
G#||-8-7-5-5-8-7-5---------------------------------| 
C#||-8-7-5---8-7-5-2-2-2---2-2-2---2-2-2---2-2-2---| 
pm                 x x x   x x x   x x x   x x x  

d#||-----------------------------------------------| 
A#||-----------------------------------------------| 
F#||-------7---------------------------------------| 
C#||-8-7-5-7-8-7-5---------------------------------| 
G#||-8-7-5-5-8-7-5---------------------------------| 
C#||-8-7-5---8-7-5-2-2-2---2-2-2-2-2-2-2-2-2-2-2-2-| 
pm                 x x x   x x x x x x x x x x x x 

d#||---------------|-----------2---------------|-----------2-----| 
A#||---------------|---0-----------------------|----0------------| 
F#||-------7-------|--------0---------------2--|--------0--------| 
C#||-8-7-5-7-8-7-5-|------------------4--------|-----------------| 
G#||-8-7-5-5-8-7-5-|---------------2-----5-----|-----------------| 
C#||-8-7-5---8-7-5-|-2-------------------------|-2-------------2-| 

d#||---------------|-----------2---------------|-----------2-----| 
A#||---------------|---0-----------------------|----0------------| 
F#||-------7-------|--------0---------4b----2--|--------0--------| 
C#||-8-7-5-7-8-7-5-|---------------------------|-----------------| 
G#||-8-7-5-5-8-7-5-|---------------2-----------|-----------------| 
C#||-8-7-5---8-7-5-|-2-------------------------|-2-------------2-| 

d#||-----------------| 
A#||-----------------| 
F#||-------7---------| 
C#||-8-7-5-7-8-7-5-2-| 
G#||-8-7-5-5-8-7-5-2-| 
C#||-8-7-5---8-7-5-2-| 

Verse 
d#||-----------------| 
A#||-----------------| 
F#||-----------------| 
C#||-2-4-4--2-5p2-2--| 
G#||-2-2-2--2-2---2--| 
C#||-----------------|x4 

d#||---------------------------------| 
A#||-13-13--13---12-12--12---8-8--8--| 
F#||-12-12--12---12-12--12---9-9--9--| 
C#||-10-10--10---9--9---9----9-9--9--| 
G#||---------------------------------| 
C#||---------------------------------| 

d#||-----------------| 
A#||-----------------| 
F#||-----------------| 
C#||-2-4-4--2-5p2-2--| 
G#||-2-2-2--2-2---2--| 
C#||-----------------|x4 

d#||-------------------------10-10--10-| 
A#||-13-13--13---12-12--12---8--8---8--| 
F#||-12-12--12---12-12--12---9--9---9--| 
C#||-10-10--10---9--9---9----9--9---9--| 
G#||-----------------------------------| 
C#||-----------------------------------| 

d#||-------------| 
A#||-------------| 
F#||-------------| 
C#||-2-4--x-4-5--| 
G#||-2-4--x-4-5--| 
C#||-2-4--x-4-5--|x4 

d#||--------------------0---| 
A#||---8--------7-------3---| 
F#||--------------------2---| 
C#||-9----9---7----7----0---| 
G#||------------------------| 
C#||------------------------| 

d#||-------------------------------------------------------------| 
A#||----10-------------------------------------------------------| 
F#||-12-----12--11h12p12-------------11h12p11----11-----11~-12~--| 
C#||---------------------14-12----------------14----14-----------| 
G#||----------------------------12-------------------------------| 
C#||-------------------------------------------------------------| 

d#||-----------------| 
A#||-----------------| 
F#||-----------------| 
C#||-2-4-4--2-5p2-2--| 
G#||-2-2-2--2-2---2--| 
C#||-----------------|x4 

d#||---------0---|---------0---| 
A#||-----3-------|-----3-------| 
F#||-4-5---5-----|-4-5---5---4-| 
C#||-------------|-------------| 
G#||-------------|-------------| 
C#||-------------|-------------|x2 

d#||-----------------| 
A#||-----------------| 
F#||-----------------| 
C#||-2-4-4--2-5p2-2--| 
G#||-2-2-2--2-2---2--| 
C#||-----------------|x4 

d#||---------0---|---------0---| 
A#||-----3-------|-----3-------| 
F#||-4-5---5-----|-4-5---5---4-| 
C#||-------------|-------------| 
G#||-------------|-------------| 
C#||-------------|-------------|x2 

d#||-----------------------------------------------| 
A#||-----------------------------------------------| 
F#||-7-7--7---11-11--12---5-5-5--5---11-11-11--12--| 
C#||-7-7--7---12-12--12---5-5-5--5---12-12-12--12--| 
G#||-5-5--5---9--9---10---3-3-3--3---9--9--9---10--| 
C#||-----------------------------------------------| 
pm                        x x        x  x 

1:30 
d#||-----------------| 
A#||-----------------| 
F#||-----------------| 
C#||-2-4-4--2-5p2-2--| 
G#||-2-2-2--2-2---2--| 
C#||-----------------|x10 

d#||---------------------------------| 
A#||-13-13--13---12-12--12---8-8--8--| 
F#||-12-12--12---12-12--12---9-9--9--| 
C#||-10-10--10---9--9---9----9-9--9--| 
G#||---------------------------------| 
C#||---------------------------------| 

d#||-----------------| 
A#||-----------------| 
F#||-----------------| 
C#||-2-4-4--2-5p2-2--| 
G#||-2-2-2--2-2---2--| 
C#||-----------------|x4 

d#||-------------------------10-10--10-| 
A#||-13-13--13---12-12--12---8--8---8--| 
F#||-12-12--12---12-12--12---9--9---9--| 
C#||-10-10--10---9--9---9----9--9---9--| 
G#||-----------------------------------| 
C#||-----------------------------------| 

d#||-------------| 
A#||-------------| 
F#||-------------| 
C#||-2-4--x-4-5--| 
G#||-2-4--x-4-5--| 
C#||-2-4--x-4-5--|x4 

d#||--------------------0---| 
A#||---8--------7-------3---| 
F#||--------------------2---| 
C#||-9----9---7----7----0---| 
G#||------------------------| 
C#||------------------------| 

d#||----------------------------------------------------------| 
A#||----10----------------------------------------------------| 
F#||-12-----12--11h12p12-------------11h12p11----11-----------| 
C#||---------------------14-12----------------14----14--14----| 
G#||----------------------------12----------------------------| 
C#||----------------------------------------------------------| 

2:04 
d#||-----------------------------| 
A#||-8----7---------3----5-------| 
F#||-9----7---------4----5-------| 
C#||-9----7---------5----5-------| 
G#||-7----5--------------3-------| 
C#||-----------------------------| 

d#||---------0---|---------0---| 
A#||-----3-------|-----3-------| 
F#||-4-5---5-----|-4-5---5---4-| 
C#||-------------|-------------| 
G#||-------------|-------------| 
C#||-------------|-------------|x2 

d#||---------0---|---------0---| 
A#||-----3-------|-----3-------| 
F#||-4-5---5-----|-4-5---5-----| 
C#||-------------|-------------| 
G#||-------------|-------------| 
C#||-------------|-------------| 

d#||-----------2---------------|-----------2-----| 
A#||---0-----------------------|----0------------| 
F#||--------0---------------2--|--------0--------| 
C#||------------------4--------|-----------------| 
G#||---------------2-----5-----|-----------------| 
C#||-2-------------------------|-2-------------2-| 

d#||---------------|-----------2---------------|-----------2-----| 
A#||---------------|---0-----------------------|----0------------| 
F#||-------7-------|--------0---------4b----2--|--------0--------| 
C#||-8-7-5-7-8-7-5-|---------------------------|-----------------| 
G#||-8-7-5-5-8-7-5-|---------------2-----------|-----------------| 
C#||-8-7-5---8-7-5-|-2-------------------------|-2-------------2-| 

d#||-----------------|--------------------| 
A#||-----------------|--------------------| 
F#||-------7---------|----------------9\--| 
C#||-8-7-5-7-8-7-5-2-|----------------9\--| 
G#||-8-7-5-5-8-7-5-2-|----------------7\--| 
C#||-8-7-5---8-7-5-2-|--------------------| 



************************************ 

| \  Slide down 
| b  Bend 
| p  Pull-off 
| x  Dead note 
| h  Hammer-on 
| ~  Vibrato 
|  
pm Palm mute 

************************************ 
  

top 5 | propagandhi
top rock'n roll
Outras músicas do artista letras do(a) Propagandhi
Top cifras »Top artistas »
Petaxxon Comunicação Online
Cifras.com.br - Melhor e mais completo site de cifras e tablaturas do Brasil
Mais de 1 milhão de acordes de músicas cadastradas desde 2003
As informações contidas no nosso site são colaborações de seus usuários e podem conter erros, sendo assim, não nos responsabilizamos sobre nenhuma destas.
close
menos
mais
close
Cor dos acordes:

Cor da letra:

 

save
close
close
 
redimensionar