Cifras e Tablaturas
Public Service Broadcasting

Public Service Broadcasting

Mother Of The Village

Cifras Cancelar Versão de Impressão
cifras

Public Service Broadcasting - Mother Of The Village

fixar na tela  
Exibindo: vídeo-aula ver clipes redimensionar
  
Intro  
G#m and F# optionally 

Verse 
0:30                          0:36                              0:43  Strum these chords 
e|-----------------------------|---------------|-------------------|----------------------| 
B|--------------------------4--|---------------|-------------------|---4--4--2--4---------| 
G|-4-4--4p3------4-4-3h4-4/6-6-|-4-4--4p3------|-4-4-3h4-3-3h4-3h4-|-4-4--6--3--4---------| 
D|---------6-4h6---------------|---------6-4h6-|-------------------|---4--4--4--4---------| 
A|-----------------------------|---------------|-------------------|---6--6--4--6---------| 
E|-----------------------------|---------------|-------------------|----------------------| 

0:58                             1:06 
e|--------------------------------|-----------------|----------------------|--------------| 
B|--------------------------4-----|-----------------|--------4---4---------|---4--4--2--4-| 
G|-4-4--4p3------4-4-3h4-4/6-6p4--|-4-4-6h8---------|-4-4-4/6-4/6-4h6------|-4-4--6--3--4-| 
D|---------6-4h6----------------6-|--------8p6------|----------------6p4h6-|---4--4--4--4-| 
A|--------------------------------|-----------8p6/8-|----------------------|---6--6--4--6-| 
E|--------------------------------|-----------------|----------------------|--------------| 

Chorus 
1:26 
e|-------------------------|--------------------------| 
B|-4h7-7-4h7-7-4h5-5-4h5-5-|-------------4----4--4h5--| 
G|-------------------------|-6h8-8-6h8-8--6-6--6------| (2x) 
D|-------------------------|--------------------------| 
A|-------------------------|--------------------------| 
E|-------------------------|--------------------------| 

e|----------------|----------------| 
B|-4--4--4--4h5p4-|-4--4--4--4h5p4-| 
G|--6--6--6-------|--6--6--6-------| 
D|----------------|----------------| 
A|----------------|----------------| 
E|----------------|----------------| 

Verse 
2:00                                             Strum down 
e|------------------------------|---------------------|------------------|-----------------------| 
B|--------------------------4---|---------------------|------------------|---4--4--2--4----------| 
G|-4-4--4p3------4-4-3h4-4/6-6--|-4-4--4p3----------4-|-4-4--------------|-4-4--6--3--4----------| 
D|---------6-4h6--------------6-|---------6-4h6-4h6-4-|-------4h6p4------|---4--4--4--4----------| 
A|------------------------------|-------------------6-|----4h6-----6p4---|---6--6--4--6----------| 
E|------------------------------|---------------------|----------------4-|-----------------------| 

Chorus 
2:27 
e|-------------------------|--------------------------| 
B|-4h7-7-4h7-7-4h5-5-4h5-5-|-------------4----4--4h5--| 
G|-------------------------|-6h8-8-6h8-8--6-6--6------| (3x) 
D|-------------------------|--------------------------| 
A|-------------------------|--------------------------| 
E|-------------------------|--------------------------| 

                                  End chord 
e|-------------------------------|-----| 
B|-4--4--4--4h5p4-4--4--4--4h5p4-|--4--| 
G|--6--6--6--------6--6--6-------|--4--| 
D|-------------------------------|--4--| 
A|-------------------------------|--6--| 
E|-------------------------------|-----| 


************************************ 

| h   Hammer-on 
| p   Pull-off 
| /   Slide up 
| \   Slide down 

************************************ 
  

cifra enviadasem correções
enviado porenviada por:VsWorld
top 5 | public service broadcasting
top rock'n roll
Outras músicas do artista letras do(a) Public Service Broadcasting
Top cifras »Top artistas »
Petaxxon Comunicação Online
Cifras.com.br - Melhor e mais completo site de cifras e tablaturas do Brasil
Mais de 1 milhão de acordes de músicas cadastradas desde 2003
As informações contidas no nosso site são colaborações de seus usuários e podem conter erros, sendo assim, não nos responsabilizamos sobre nenhuma destas.
close
menos
mais
close
Cor dos acordes:

Cor da letra:

 

save
close
close
 
redimensionar