Cifras e Tablaturas
Ramin Djawadi

Ramin Djawadi

Light Of Seven (ver. Acoustic)

Cifras Cancelar Versão de Impressão
cifras

Ramin Djawadi - Light Of Seven (ver. Acoustic)

fixar na tela  
Exibindo: vídeo-aula ver clipes redimensionar

Tom:

  
e|------1---1-----------------------|------1---1---------------------| x2 
B|----------------------------------|--------------------------------| 
G|----2---2---2---2-----3---3-------|----2---2---2---2---------------| 
D|--0-----------0-----0---0---0---0-|--0-----------0---0-------------| 
A|----------------------------------|--------------------------------| 
E|------------------3-----------3---|--------------------------------| 

e|------1---1-----------------------|--------------------------------|  
B|----------------------3---3-------|----------------------3---3-----| 
G|----2---2---2---2---3---3---3---3-|------3---3---------2---2-------| 
D|--0-----------0---3-----------3---|----2---2---2---2-0-------------| 
A|----------------------------------|--3-----------3-----------------| 
E|----------------------------------|--------------------------------| 

e|------1---1-----------1---1-------|--------------------------------|  
B|----------------------------------|------3-------------------------| 
G|----2---2---2---2---2---2---2---2-|--------------2-------3---3-----| 
D|--0-----------0-------------------|----3---3---0---0---0---0-------| 
A|------------------0-----------0---|--1-----------------------------| 
E|----------------------------------|----------1-------3-------------| 

e|------1---1-----------1---1-------|--------------------------------|  
B|----------------------------------|------1---1---------------------| 
G|----2---2---2---2---2---2---2---2-|----------------------3---3-----| 
D|--0-----------0-------------------|----2---2---2---2---0---0-------| 
A|------------------0-----------0---|--0-----------0---1-------------| 
E|----------------------------------|--------------------------------| 

e|----------------------------------|--------------------------------|  
B|----------------------------------|--------------------------------| 
G|------3---3-----------2---2-------|------0---0---------------------| 
D|----0---0---0---0---0---0---0---0-|----0---0-----------------------| 
A|----------------------------------|--------------------------------| 
E|--3-----------3---1-----------1---|--0-----------------------------| 
  

top 5 | ramin djawadi
top diversos
Outras músicas do artista letras do(a) Ramin Djawadi
Top cifras »Top artistas »
Petaxxon Comunicação Online
Cifras.com.br - Melhor e mais completo site de cifras e tablaturas do Brasil
Mais de 1 milhão de acordes de músicas cadastradas desde 2003
As informações contidas no nosso site são colaborações de seus usuários e podem conter erros, sendo assim, não nos responsabilizamos sobre nenhuma destas.
close
menos
mais
close
Cor dos acordes:

Cor da letra:

 

save
close
close
 
redimensionar