Cifras e Tablaturas
Ramin Djawadi

Ramin Djawadi

My Watch Has Ended

Cifras Cancelar Versão de Impressão
cifras

Ramin Djawadi - My Watch Has Ended

fixar na tela  
Exibindo: vídeo-aula ver clipes redimensionar

Tom:

  
 
Capo 3 

Intro 
                                                                
e|------------------------------|------------------------------| 
B|--0---------0----------1------|--0---------0----------1---0--| 
G|--------1-2-------1-2--0------|--------1-2-------1-2--0---1--| 
D|-----2---------2----------2---|-----2---------2-------2---2--| 
A|-----------------------3------|-----------------------3---2--| 
E|--0---------0-----------------|--0---------0--------------0--| 


Part 1 
                                      
e|---------------------|---------------------|--------------------| 
B|--0--------0-1-0-----|---------------------|--------------------| 
G|---------------------|--3------------------|------0------2------| 
D|---------2---------2-|--3------------3-----|------0------3------| 
A|---------------------|--4------4-----------|--------------------| 
E|--0------------0-----|--6------------------|------3------1------| 
  
e|-----------------0---|---------------------| 
B|--0------0-1-0---0---|--------0------------| 
G|---------------------|--------0-----2------| 
D|-------2-------------|--------0-----3------| 
A|---------------------|--------------3------| 
E|--0----------0-------|--------3-----1------| 


Part 2 
                                                            
e|---------------------|---------------------|--------------------| 
B|-----3--1--0---------|---------------------|--------------------| 
G|--2-----------2--0---|--0----------0-2---2-|--------------------| 
D|--2--------------0---|--2--------2-------3-|-----------2--------| 
A|--0------------------|--3----------------0-|-----3-----2--------| 
E|--------------3------|-------------------1-|-----------0--------| 


Part 3 
                                                           
e|---------------------|---------------------|--------------------| 
B|-0---------0-1-0-----|---------------------|--------------------| 
G|-0-------------------|--3------------------|------0------2------| 
D|-2-------2---------2-|--3------------3-----|------0------3------| 
A|-2-------------------|--4------4-----------|--------------------| 
E|-0-------------0-----|--6------------------|------3------1------| 

e|-----------------0---|---------------------| 
B|--0------0-1-0---0---|--3--1--0------------| 
G|---------------------|--------0-----2------| 
D|-------2-------------|--------0-----3------| 
A|---------------------|--------------3------| 
E|--0----------0-------|--------3-----1------| 


Part 4 

e|---------------------|---------------------|--------------------| 
B|-----3--1--0---------|---------------------|--------------------| 
G|--2-----------2--0---|--0----------0-2---2-|--------------------| 
D|--2--------------0---|--2--------2-------3-|-----------2--------| 
A|--0------------------|--3----------------0-|-----3-----2--------| 
E|--------------3------|-------------------1-|-----------0--------| 


Outro 

e|---------------------|--5------------------| 
B|---------------------|----------1-------5--| 
G|--2------------------|------------------4--| 
D|--3--------------2---|------------------2--| 
A|--0-----3--------2---|----------3-------2--| 
E|--1--------------0---|--1---------------0--|  
  

top 5 | ramin djawadi
top diversos
Outras músicas do artista letras do(a) Ramin Djawadi
Top cifras »Top artistas »
Petaxxon Comunicação Online
Cifras.com.br - Melhor e mais completo site de cifras e tablaturas do Brasil
Mais de 1 milhão de acordes de músicas cadastradas desde 2003
As informações contidas no nosso site são colaborações de seus usuários e podem conter erros, sendo assim, não nos responsabilizamos sobre nenhuma destas.
close
menos
mais
close
Cor dos acordes:

Cor da letra:

 

save
close
close
 
redimensionar