Cifras e Tablaturas
Ramin Djawadi

Ramin Djawadi

Sweetwater

Cifras Cancelar Versão de Impressão
cifras

Ramin Djawadi - Sweetwater

fixar na tela  
Exibindo: vídeo-aula ver clipes redimensionar

Tom:

  
Intro 

Guitar 1 

e|-----------------|-----------------| 
B|----8--8--8------|----8--8--8------| 
G|----9--9--9------|----9--9--9------| 
D|----9--9--9------|----9--9--9------| 
A|--7--------------|--7--------------| 
E|------------8-10-|--0---------8-10-| 

Guitar 2 (rest) 


Part 1 

Guitar 1 

e|-----------------|-----------------| 
B|----8--8--8------|----8--8--8------| 
G|----9--9--9------|----9--9--9------| 
D|----9--9--9------|----9--9--9------| 
A|--7--------------|--7--------------| 
E|--0---------8-10-|--0---------8-10-| 

Guitar 2 

e|--------3-----| 
B|----5-------5-| 
G|------4-------| 
D|--------------| 
A|--------------| 
E|--------------| 



Guitar 1 

e|----------------|----3--3--3-----| 
B|----8--8--8--8--|----3--3--3-----| 
G|----9--9--9--9--|----4--4--4-----| 
D|----9--9--9--9--|----------------| 
A|--7-------------|----------------| 
E|--0-------------|--3---------3-2-| 

Guitar 2 
  
e|---------7--3-5-|----------------| 
B|-----5-4--------|-5--------------| 
G|----------------|----------------| 
D|----------------|----------------| 
A|----------------|----------------| 
E|----------------|----------------| 



Guitar 1 

e|----3--3--3-----|----5--5--5-----| 
B|----3--3--3-----|----5--5--5-----| 
G|----4--4--4-----|----5--5--5-----| 
D|------------5-7-|------------7-6-| 
A|----------------|--0-------------| 
E|--3-------------|----------------| 

Guitar 2 

e|------------3-5-|--------3-----5-|                                       
B|--------5-------|--4--5----------| 
G|----------------|----------------| 
D|----------------|----------------| 
A|----------------|----------------| 
E|----------------|----------------| 



Guitar 1 

e|----5--5--5--5--|-----------------| 
B|----5--5--5--5--|-----8--8--8-----| 
G|----5--5--5--5--|-----9--9--9-----| 
D|----------------|-----9--9--9-----| 
A|--0-------------|-----------------| 
E|----------------|---0--------8-10-| 

Guitar 2 

e|--------3-------|-----------------| 
B|--4--5----------|---5-------------| 
G|-----------5-5--|-4---------------| 
D|----------------|-----------------| 
A|----------------|-----------------| 
E|----------------|-----------------| 



Guitar 1 

e|----------------|-----------------| 
B|-----8--8--8--8-|-----8--8--8-----| 
G|-----9--9--9--9-|-----9--9--9-----| 
D|-----9--9--9--9-|-----9--9--9-----|  
A|--7-------------|-----------------| 
E|--0-------------|--0---------8-10-|   

Guitar 2 

e|----------------|----------7------| 
B|------8-7---8-7-|------8-7---8-7--| 
G|------9-9---9-9-|------9-9---9-9--| 
D|----------------|-----------------| 
A|----------------|-----------------| 
E|----------------|-----------------| 


Part 2 

Guitar 1 

e|-----------------|-----------------|----------| 
B|----8--8--8------|----8--8--8--8---|---8--8---| 
G|----9--9--9------|----9--9--9--9---|---9--9---| 
D|----9--9--9------|----9--9--9--9---|---9--9---| 
A|--7--------------|--7--------------|----------| 
E|--0---------8-10-|--0--------------|-0--------| 


Guitar 2 

e|---------3-------|-----------------|-7---3-5--| 
B|-----5------5----|-----------5-4---|----------| 
G|-------4---------|-----------------|----------| 
D|-----------------|-----------------|----------| 
A|-----------------|-----------------|----------| 
E|-----------------|-----------------|----------| 




Guitar 1 

e|------------------|-----------------| 
B|-----8--8--8------|----8--8--8------| 
G|-----7--7--7------|----7--7--7------| 
D|-----9--9--9------|----9--9--9------| 
A|--10---------10-9-|-10---------10-9-| 
E|------------------|-----------------| 

Guitar 2 

e|------------------|--------5---5--7-| 
B|------------------|-----------------| 
G|------------------|-----------------| 
D|------------------|-----------------| 
A|------------------|-----------------| 
E|------------------|-----------------| 



Guitar 1 

e|-----------------|-----------------| 
B|----10-10-10-10--|----10-10-10-10--| 
G|----9--9--9--9---|----9--9--9--9---| 
D|----7--7--7--7---|----7--7--7--7---| 
A|--0--------------|--0--------------| 
E|-----------------|-----------------| 


Guitar 2 

e|--------3----5---|-----3---8---7---| 
B|--4--5-----------|--5-----------5--| 
G|-----------------|-----------------| 
D|-----------------|-----------------| 
A|-----------------|-----------------| 
E|-----------------|-----------------| 



Guitar 1 
                            (fade) 
e|-----------------|-----------------| 
B|-----8--8--8-----|-----8--8--8--8--| 
G|-----9--9--9-----|-----9--9--9--9--| 
D|-----9--9--9-----|-----9--9--9--9--| 
A|-----------------|--7--------------| 
E|--0---------8-10-|--0--------------| 

Guitar 2 (rest) 


Part 3 

Guitar 1 (strum) 

e|--0--------------|--0--------------| 
B|--0--------------|--0--------------| 
G|--0--------------|--0--------------| 
D|--2----------5-7-|--2----------5-7-| 
A|--2----------3-5-|--2----------3-5-| 
E|--0--------------|--0--------------| 

Guitar 2 (rest) 



Guitar 1 (strum) 

e|--0--------------|--0--------------|--0-------| 
B|--0--------------|--0--------------|--0-------| 
G|--0--------------|--0--------------|--0-------| 
D|--2----------5-7-|--2----------5-7-|--2-------| 
A|--2----------3-5-|--2----------3-5-|--2-------| 
E|--0--------------|--0--------------|--0-------| 

Guitar 2 

e|---------3-------|-----------------|--7---3-5-| 
B|-----5-------5---|-------------5-4-|----------| 
G|-------4---------|-----------------|----------| 
D|-----------------|-----------------|----------| 
A|-----------------|-----------------|----------| 
E|-----------------|-----------------|----------| 



Guitar 1 (strum) 

e|--3--------------|--3--------------| 
B|--3--------------|--3--------------| 
G|--4--------------|--4--------------| 
D|--5--------------|--5--------------| 
A|--5--------------|--5--------------| 
E|--3---------3-2--|--3--------------| 

Guitar 2 

e|-----------------|---------7---3-5-| 
B|--5--------------|-----------------| 
G|-----------------|-----------------| 
D|-----------------|-----------------| 
A|-----------------|-----------------| 
E|-----------------|-----------------| 



Guitar 1 (strum) 

e|--0--------------|--0--------------| 
B|--1--------------|--1--------------| 
G|--2--------------|--2--------------| 
D|--2--------------|--2--------------| 
A|--0----------0---|--0--------------| 
E|---------------4-|---------------3-| 

Guitar 2 

e|----------3----2-|-----------------| 
B|--4---5----------|--4---5--------3-| 
G|-----------------|----------5------| 
D|-----------------|-----------------| 
A|-----------------|-----------------| 
E|-----------------|-----------------| 



Guitar 1 (strum) 

e|--0--------------|--0--------------| 
B|--0--------------|--0--------------| 
G|--0--------------|--0--------------| 
D|--2-------5-7----|--2----------5-7-| 
A|--2-------3-5----|--2----------3-5-| 
E|--0--------------|--0--------------| 

Guitar 2 

e|-----------------|-----------------| 
B|--5--------------|-----------------| 
G|-----------------|-----------------| 
D|-----------------|-----------------| 
A|-----------------|-----------------| 
E|-----------------|-----------------| 



Guitar 1 (strum) 

e|--0--------------|--0--------------|--0-------| 
B|--0--------------|--0--------------|--0-------| 
G|--0--------------|--0--------------|--0-------| 
D|--2----------5-7-|--2----------5-7-|--2-------| 
A|--2----------3-5-|--2----------3-5-|--2-------| 
E|--0--------------|--0--------------|--0-------| 

Guitar 2 

e|---------3-------|-----------------|--7---3-5-| 
B|-----5-------5---|-------------5-4-|----------| 
G|-------4---------|-----------------|----------| 
D|-----------------|-----------------|----------| 
A|-----------------|-----------------|----------| 
E|-----------------|-----------------|----------| 



Guitar 1 (strum) 

e|--3--------------|--3--------------| 
B|--3--------------|--3--------------| 
G|--4--------------|--4--------------| 
D|--5--------------|--5--------------| 
A|--5--------------|--5--------------| 
E|--3---------3-2--|--3--------------| 

Guitar 2 

e|-----------------|-----------3---5-| 
B|--5--------------|-----------------| 
G|-----------------|-----------------| 
D|-----------------|-----------------| 
A|-----------------|-----------------| 
E|-----------------|-----------------| 



Guitar 1 (strum) 

e|--0--------------|--0--------------| 
B|--1--------------|--0--------------| 
G|--2--------------|--0--------------| 
D|--2--------------|--2----------5-7-| 
A|--0--------------|--2----------3-5-| 
E|-----------------|--0--------------| 

Guitar 2 

e|----------10---8-|-7---------------| 
B|--2---3----------|-----------------| 
G|-----------------|-----------------| 
D|-----------------|-----------------| 
A|-----------------|-----------------| 
E|-----------------|-----------------| 



Guitar 1 (strum) 

e|--0--------------| 
B|--0--------------| 
G|--0--------------| 
D|--2--------------| 
A|--2--------------| 
E|--0--------------| 

Guitar 2 (rest) 


Bridge 

Guitar 1 

e|--2-------------------------------|--2-------------------------------| 
B|--3-------------------------------|--3-------------------------------| 
G|--4-------------------------------|--4-------------------------------| 
D|--4-------------------------------|--4-------------------------------| 
A|--2-------------------------------|--2-------------------------------| 
E|----------------------------------|----------------------------------| 

Guitar 2 

e|----------------------------------|----------------------------------| 
B|--7-------7-------7-------7-------|--7-------8-------7-------8-------| 
G|----7---7---7---7---7---7---7---7-|----7---7---7---7---7---7---7---7-| 
D|------9-------9-------9-------9---|------9-------9-------9-------9---| 
A|----------------------------------|----------------------------------| 
E|----------------------------------|----------------------------------| 



Guitar 1 

e|--3----------------------------------------| 
B|--3----------------------------------------| 
G|--4----------------------------------------| 
D|--5----------------------------------------| 
A|--5----------------------------------------| 
E|--3--------------------------------3-------| 

Guitar 2 

e|-------------------------------------------| 
B|--8-------8-------8-------10-------8-------| 
G|----7---7---7---7---7---7----7---7---7---7-| 
D|------9-------9-------9--------9-------9---| 
A|-------------------------------------------| 
E|-------------------------------------------| 


Outro 

Guitar 1 

e|-----------------|-----------------| 
B|----8--8--8------|----8--8--8------| 
G|----9--9--9------|----9--9--9------| 
D|----9--9--9------|----9--9--9------| 
A|--7--------------|--7--------------| 
E|--0---------8-10-|--0---------8-10-| 

Guitar 2  

e|--0--------------|-----------------| 
B|--0--------------|-----------------| 
G|--9--------------|-----------------| 
D|--9--------------|-----------------| 
A|--7--------------|-----------------| 
E|--0--------------|-----------------| 



Guitar 1 

e|-----------------------|-----------------| 
B|----8--8--8--8--8------|----8--8--8--8---| 
G|----9--9--9--9--8------|----9--9--9--9---| 
D|----9--9--9--9--9------|----9--9--9--9---| 
A|--7--------------------|--7--------------| 
E|--0---------------8-10-|--0--------------| 

Guitar 2 

e|---------3-------------|----------7--3-5-| 
B|-----5------5----------|------5-4--------| 
G|-------4---------------|-----------------| 
D|-----------------------|-----------------| 
A|-----------------------|-----------------| 
E|-----------------------|-----------------| 



Guitar 1 

e|------------------|-----------------|-----------------| 
B|-----8--8--8------|----10-10-10-10--|----10-10-10-10--| 
G|-----7--7--7------|----9--9--9--9---|----9--9--9--9---| 
D|-----9--9--9------|----7--7--7--7---|----7--7--7--7---| 
A|--10---------10-9-|--0--------------|--0--------------| 
E|------------------|-----------------|-----------------| 

Guitar 2 

e|--------------3-5-|--------3---2----|--------3---2----| 
B|--5---------------|--4--5-----------|--4--5-----------| 
G|------------------|-----------------|-----------------| 
D|------------------|-----------------|-----------------| 
A|------------------|-----------------|-----------------| 
E|------------------|-----------------|-----------------| 



Guitar 1 

e|----------------------|----------------------| 
B|-----8----8----8------|-----8----8----8------| 
G|-----9----9----9------|-----9----9----9------| 
D|-----9----9----9------|-----9----9----9------| 
A|--7-------------------|--7-------------------| 
E|--0--------------8-10-|--0--------------8-10-| 

Guitar 2 

e|-------------------12-|----------------------| 
B|----12---13---12------|----12---13---12------| 
G|--9----9----9----9----|--9----9----9---------| 
D|----------------------|----------------------| 
A|----------------------|----------------------| 
E|----------------------|----------------------| 



Guitar 1 

e|-----7----7----7------|-----7----7----7------|   
B|-----7----7----7------|-----7----7----7------| 
G|-----7----7----7------|-----7----7----7------| 
D|------------------9-8-|------------------9/7-| 
A|----------------------|----------------------| 
E|--7-------------------|--7-------------------| 

Guitar 2 

e|----19---19---19---18-|----19---19---19------| 
B|----19---19---19---19-|----19---19---19---19-| 
G|----------------------|----------------------| 
D|----------------------|----------------------| 
A|----------------------|----------------------| 
E|----------------------|----------------------| 



Guitar 1 

e|-----5----5----5------|-----3----3----3------| 
B|-----5----5----5------|-----3----3----3------| 
G|-----6----6----6------|-----4----4----4------| 
D|--7---------------7/5-|--5----------------5/-| 
A|----------------------|----------------------| 
E|----------------------|----------------------| 

Guitar 2 

e|----17---17---17---17-|----15---15---15---15-| 
B|----17---17---17---17-|----15---15---15---15-| 
G|----------------------|----------------------| 
D|----------------------|----------------------| 
A|----------------------|----------------------| 
E|----------------------|----------------------| 



Guitar 1 

e|-----0----0----0------|-----0----0----0-------0-| 
B|-----0----0----0------|-----0----0----0-------0-| 
G|-----0----0----0------|-----0----0----0-------0-| 
D|--------------------0-|--------------------0----| 
A|------------------3---|------------------3------| 
E|--0-------------------|--0--------------------0-| 

Guitar 2 

e|----------------------|----------------------12*| 
B|----------------------|----------------------12*| 
G|----------------------|-------------------------| 
D|----------------------|-------------------------| 
A|----------------------|-------------------------| 
E|----------------------|-------------------------| 

Don't forget to rate. Thanks! 

************************************ 

| /  slide down 
| *  harmonic 

************************************ 
  

top 5 | ramin djawadi
top diversos
Outras músicas do artista letras do(a) Ramin Djawadi
Top cifras »Top artistas »
Petaxxon Comunicação Online
Cifras.com.br - Melhor e mais completo site de cifras e tablaturas do Brasil
Mais de 1 milhão de acordes de músicas cadastradas desde 2003
As informações contidas no nosso site são colaborações de seus usuários e podem conter erros, sendo assim, não nos responsabilizamos sobre nenhuma destas.
close
menos
mais
close
Cor dos acordes:

Cor da letra:

 

save
close
close
 
redimensionar