Cifras e Tablaturas
Reach

Reach

Wake Me Up

Cifras Cancelar Versão de Impressão Print

Reach - Wake Me Up

Tom: Bm

  • 0:00 / 0:00
Intro: 

     Bm  G          D   A         
e|--------------------------------------------------| 
B|--------------------------------------------------| 
G|---4--------------7---6-7-6-----------------------| 
D|---4-x-5-4-5------7-x-6-7-7-----------------------| 
A|-----x-5-5-5--9-9---x-----------------------------| 
E|--------------------------------------------------| 
     Bm  G          D   A                               x2 
e|--------------------------------------------------| 
B|--------------------------------------------------| 
G|---4--------------7---9-6-7-----------------------| 
D|---4-x-5-4-5------7-x-7-7-7-----------------------| 
A|-----x-5-5-5--9-9---x-----------------------------| 
E|--------------------------------------------------| 

     Bm  G          D   A         
e|--------------------------------------------------| 
B|--------------------------------------------------| 
G|-4-6-7------------7---6-7-6-----------------------| 
D|-4-4-4-5-4-5------7-x-6-7-7-----------------------| 
A|-------5-5-5--9-9---x-----------------------------| 
E|--------------------------------------------------| 

     Bm  G     A       
e|--------------------------------------------------| 
B|--------------------------------------------------| 
G|---4----------------------------------------------| 
D|---4-x-5-4-5-7------------------------------------| 
A|-----x-5-5-5-7------------------------------------| 
E|--------------------------------------------------| 



Vers 1: 
   Bm    G    D    D    
e|--------------------------------------------------| 
B|------------3-3--3-3------------------------------| 
G|-4-4-x------2-2--2-2------------------------------| x3  
D|-4-4-x------0-0--0-0------------------------------| 
A|-2-2-x--------------------------------------------| 
E|--------------------------------------------------| 

   Bm    G    D 
e|-------3------------------------------------------| 
B|-------3----3-------------------------------------| 
G|-4-----0----2-------------------------------------| 
D|-4-----0----0-------------------------------------| 
A|-2-----2------------------------------------------| 
E|-------3------------------------------------------| 

Bridge: 
e|--------------------------------------------------| 
B|-----------------------------------7--------------| 
G|-------------7-------7--7--7-9-7-9---7------------| x 2 
D|---9--9--7-9h-9--7-9h-----------------------------| 
A|--------------------------------------------------| 
E|--------------------------------------------------| 

Chorus: 
   Bm    G    D    A    
e|--------------------------------------------------| 
B|------------3-3-----------------------------------| 
G|-4-4--------2-2--2-2------------------------------|    
D|-4-4--5-5---0-0--2-2------------------------------| 
A|-2-2--5-5--------0-0------------------------------| 
E|------3-3-----------------------------------------| 
                                                      x4 
e|--------------------------------------------------| 
B|--------------------------------------------------| 
G|-4-4-----------7--6-7-6---------------------------|   
D|-4-4--5-5------7--7-7-7---------------------------| 
A|-2-2--5-5--9-9------------------------------------| 
E|------3-3-----------------------------------------| 

Vers 2:  
   Bm    G    D    D    
e|--------------------------------------------------| 
B|------------3-3--3-3------------------------------| 
G|-4-4--------2-2--2-2------------------------------| x3  
D|-4-4--5-5---0-0--0-0------------------------------| 
A|-2-2--5-5-----------------------------------------| 
E|------3-3-----------------------------------------| 

   Bm    G    D 
e|-------3------------------------------------------| 
B|-------3----3-------------------------------------| 
G|-4-----0----2-------------------------------------| 
D|-4-----0----0-------------------------------------| 
A|-2-----2------------------------------------------| 
E|-------3------------------------------------------| 


Bridge: 
e|--------------------------------------------------| 
B|-----------------------------------7--------------| 
G|-------------7-------7--7--7-9-7-9---7------------| x 2 
D|---9--9--7-9h-9--7-9h-----------------------------| 
A|--------------------------------------------------| 
E|--------------------------------------------------| 

Chorus 2: 
   Bm    G    D    A    
e|--------------------------------------------------| 
B|------------3-3-----------------------------------| 
G|-4-4--------2-2--2-2------------------------------|    
D|-4-4--5-5---0-0--2-2------------------------------| 
A|-2-2--5-5--------0-0------------------------------| 
E|------3-3-----------------------------------------| 
                                                      x4 
e|--------------------------------------------------| 
B|--------------------------------------------------| 
G|-4-4-----------7--6-7-6---------------------------|   
D|-4-4--5-5------7--7-7-7---------------------------| 
A|-2-2--5-5--9-9------------------------------------| 
E|------3-3-----------------------------------------| 

Post Chorus 

e|--------------------------------------------------| 
B|-----------------3-3-3-3--------------------------| 
G|-----------------2-2-2-2-2-2-2-2------------------| x 4 
D|-4-4-4-4---------0-0-0-0-2-2-2-2------------------| 
A|-2-2-2-2-5-5-5-5---------0-0-0-0------------------| 
E|---------3-3-3-3----------------------------------| 

Solo (over Chrous chords) 

e|---------7-----------------------------------------------------------| 
B|-10b-10b---7-10b-10--5-5-3-3-2-2-------------------------------------| 
G|---------------------------------4-4-2-2---------------------------4-| 
D|-----------------------------------------5-5-4-4-2-2-----------------| 
A|-----------------------------------------------------5-5-4-4-2-2-0---| 
E|---------------------------------------------------------------------| 

e|-------7-----------7-----------7-------------------------------------| 
B|-----7---10-7----7---10-7----7---10-17---7-10-7----7-10-17----7-10-7-| 
G|-9b-----------9b----------9b-----------9--------10---------10--------| 
D|---------------------------------------------------------------------| 
A|---------------------------------------------------------------------| 
E|---------------------------------------------------------------------| 

e|----------------------10b-9-10-7-9-7----9----------------------------| 
B|----7-10-7----7-10-7-----------------10---10-7-10-7---10-------------| 
G|-10--------10---------------------------------------9----9-10-9-7----| 
D|---------------------------------------------------------------------| 
A|---------------------------------------------------------------------| 
E|---------------------------------------------------------------------| 

e|--------------------------------------------------| 
B|--------------------------------------------------| 
G|---7----------------------------------------------| 
D|-9---9-7------------------------------------------| 
A|---------9-8-7------------------------------------| 
E|--------------10-9-7-5-7--------------------------| 

Chorus 2: 
   Bm    G    D    A    
e|--------------------------------------------------| 
B|------------3-3-----------------------------------| 
G|-4-4--------2-2--2-2------------------------------|    
D|-4-4--5-5---0-0--2-2------------------------------| 
A|-2-2--5-5--------0-0------------------------------| 
E|------3-3-----------------------------------------| 
                                                      x4 
e|--------------------------------------------------| 
B|--------------------------------------------------| 
G|-4-4-----------7--6-7-6---------------------------|   
D|-4-4--5-5------7--7-7-7---------------------------| 
A|-2-2--5-5--9-9------------------------------------| 
E|------3-3-----------------------------------------| 

Outro 
e|--------------------------------------------------| 
B|--------------------------------------------------| 
G|-----------------------------4--------------------|   
D|-2-2-2-2-2-2-2-2--------4----4--------------------| 
A|-0-0-0-0-0-0-0-0--7-5-7---5-----------------------| 
E|--------------------------------------------------| 

enviado porenviado por: brunblazkowski
cifra enviadaCorrigida por: sem correções
logo top cifrasComente
ico música do artistaMúsicas deste artista
ico curtiuCurtiu?
ico destaqueDestaque
Petaxxon Comunicação Online

Cifras.com.br - Melhor e mais completo site de cifras e tablaturas do Brasil Mais de 1 milhão de acordes de músicas cadastradas desde 2003
As informações contidas no nosso site são colaborações de seus usuários e podem conter erros, sendo assim, não nos responsabilizamos sobre nenhuma destas.

close
menos
mais
close
Cor dos acordes:

Cor da letra:

close
Alinhar acordes a direita Alinhar acordes a esquerda Alinhar acordes em baixo Alinhar acordes no topo
close
  Mostrar todos os acordes Esconder acordes muito fáceis Esconder acordes fáceis Esconder acordes intermediários
redimensionar
glossário