Cifras e Tablaturas
Reese Lansangan

Reese Lansangan

Wildwood

Cifras Cancelar Versão de Impressão

Reese Lansangan - Wildwood

Tom: D

  			
Tuning : Drop D 

_______________________________________________________________________________________ 
Intro: 
e|--------------------------0-----| \       e|--------------------------0-----|\ 
B|-----------0-------3---------2--|  \      B|-----------0-------3---------2--| \ 
G|------0h2-----2-------2---------|   \ 2x  G|------0h2-----2-------2---------|  \2x 
D|------0-------------------------|   /     D|------0-------------------------|  / 
A|--------------------------------|  /      A|---2---------------------------2| / 
D|---0---------------------------0| /       D|--------------------------------|/ 

e|------x--xxx---xxxxx---xxxx---xxxxx---xxxxxxxxxx--xxxxxx-xx|  
B|------x--xxx---xxxxx---xxxx---xxxxx---xxxxxxxxxx--xxxxxx-xx| 
G|------4--444---66666---4444---66666---6666h77666--6666h7-xx| 
D|------0--000---00000---0000---00000---0000-00000--0000-0-xx| 
A|------5--555---55555---5555---55555---7777-77777--7777-7-xx| 
D|---5-----555---55555---5555---55555---7777-77777--7777-7-xx| 


_______________________________________________________________________________________ 
Verse:1 (Repeat this part 2 times) 

e|------------------------0-------| \       e|-----------------------0------|------------------------0------| 
B|-----------0-----3----------2---|  \      B|-----------0-----3--------2---|-----------0-----3---------2---| 
G|------0h2-----2-(2)-------------|   \ 2x  G|------0h2-----2-(2)-----------|------0h2-----2-(2)------------| 
D|------0-------------------------|   /     D|------0-----------------------|------0------------------------| 
A|--------------------------------|  /      A|---2-------------2--2--------2|---2-------------2--2---------0| 
D|---0-------------0--0----------0| /       D|------------------------------|-------------------------------| 

e|-----x--xxx--xxxxx-xx-xxx--xxxxx--|  
B|-----x--xxx--xxxxx-xx-xxx--xxxxx--| 
G|-----4--444--44444-//-666--66666--| 
D|-----0--000--00000----000--00000--| 
A|-----5--555--55555-//-777--77777--| 
D|---5----555--55555-//-777--77777--| 

e|-------------------------0-------|----------------------xx(xx)|   
B|-----------0-----3-----------2---|-----------0-----3----xx(xx)| 
G|------0h2-----2-(2)--------------|------0h2-----2-(2)---xx(xx)| (Do scratching 2 times on 1st part & 4 times 
D|------0--------------------------|------0---------------xx(xx)|   on 2nd part) 
A|---------------------------------|----------------------xx(xx)|  
D|---0-------------0--0-----------0|---0-------------0----xx(xx)| 


_______________________________________________________________________________________ 
Chorus: 

e|----xx-xxx--xx-xxxx--xx-xxx--xx-xxxx-|--xx-xxx--xx-xxx------------------------0-------|  
B|----xx-xxx--xx-xxxx--xx-xxx--xx-xxxx-|--xx-xxx--xx-xxx-----------0-----3----------2---|  
G|----44-444--44-444/--77-777--77-777\-|--44-444--44-444------0h2-----2-(2)-------------|  
D|----00-000--00-000---00-000--00-000--|--00-000--00-000------0-------------------------|  
A|----55-555--55-555/--99-999--99-999\-|--55-555--55-555--------------------------------|   
D|----55-555--55-555/--99-999--99-999\-|--55-555--55-555---0-------------0--0-----------| 

e|----xx-xxx--xx-xxxx--xx-xxx--xx-xxx--|--x-x--x-x--x-x-xx-x--| 
B|----xx-xxx--xx-xxxx--xx-xxx--xx-xxx--|--x-x--x-x--x-x-xx-x--| 
G|----44-444--44-444/--77-777--77-777--|----------------------| 
D|----00-000--00-000---00-000--00-000--|----------------------| 
A|----55-555--55-555/--99-999--99-999--|----0----0----0-00-0--| 
D|----55-555--55-555/--99-999--99-999\-|--5-5\-4-4\-2-2-22-2--| 

e|-------------------------0--------|----------------------xx(xx)|   
B|-----------0-----3-----------2----|-----------0-----3----xx(xx)| 
G|------0h2-----2-(2)---------------|------0h2-----2-(2)---xx(xx)|  
D|------0---------------------------|------0---------------xx(xx)| 
A|--(0)-----------------------------|----------------------xx(xx)|  
D|---0-------------0--0------------0|---0-------------0----xx(xx)|  


_______________________________________________________________________________________ 
Verse:2 v(Repeat this part 2 times) 

Strumming: 
e|--------------------------|\          e|----------------------------|\ 
B|------0---00-----0---00---| \         B|------0---00-------0---00---| \ 
G|------0h2-22-----0h2-22---|  \2x      G|------0h2-22-------0h2-22---|  \2X 
D|------0---00-----0---00---|  /        D|------0---00-------0---00---|  / 
A|--------------------------| /         A|---2--2---22--(2)--2---22---| / 
D|---0---------(0)----------|/          D|----------------------------|/ 

e|-----x--xxx--xxxxx-xx-xxx--xxxxx--|  
B|-----x--xxx--xxxxx-xx-xxx--xxxxx--| 
G|-----4--444--44444-//-666--66666--| 
D|-----0--000--00000----000--00000--| 
A|-----5--555--55555-//-777--77777--| 
D|---5----555--55555-//-777--77777--| 

e|-------------------------0-------|----------------------xx(xx)|   
B|-----------0-----3-----------2---|-----------0-----3----xx(xx)| 
G|------0h2-----2-(2)--------------|------0h2-----2-(2)---xx(xx)|  
D|------0--------------------------|------0---------------xx(xx)| 
A|---------------------------------|----------------------xx(xx)|  
D|---0-------------0--0-----------0|---0-------------0----xx(xx)| 


_______________________________________________________________________________________ 
Chorus: 2 

e|----xx-xxx--xx-xxxx--xx-xxx--xx-xxxx-|--xx-xxx--xx-xxx------------------------0-------|  
B|----xx-xxx--xx-xxxx--xx-xxx--xx-xxxx-|--xx-xxx--xx-xxx-----------0-----3----------2---|  
G|----44-444--44-444/--77-777--77-777\-|--44-444--44-444------0h2-----2-(2)-------------|  
D|----00-000--00-000---00-000--00-000--|--00-000--00-000------0-------------------------|  
A|----55-555--55-555/--99-999--99-999\-|--55-555--55-555--------------------------------|   
D|----55-555--55-555/--99-999--99-999\-|--55-555--55-555---0-------------0--0-----------| 

e|----xx-xxx--xx-xxxx--xx-xxx--xx-xxx--|--x-x--x-x--x-x-xx-x--| 
B|----xx-xxx--xx-xxxx--xx-xxx--xx-xxx--|--x-x--x-x--x-x-xx-x--| 
G|----44-444--44-444/--77-777--77-777--|----------------------| 
D|----00-000--00-000---00-000--00-000--|----------------------| 
A|----55-555--55-555/--99-999--99-999--|----0----0----0-00-0--| 
D|----55-555--55-555/--99-999--99-999\-|--5-5\-4-4\-2-2-22-2--| 

e|--------------------------0-------|----------------------xxxx|   
B|------------0-----3-----------2---|-----------0-----3----xxxx| 
G|-------0h2-----2-(2)--------------|------0h2-----2-(2)---xxxx|  
D|-------0--------------------------|------0---------------xxxx| 
A|--(0)-----------------------------|----------------------xxxx|  
D|---0--------------0--0-----------0|---0-------------0----xxxx|  


_______________________________________________________________________________________ 
Bridge: 
(Playable w/ PALM MUTE) 
e|----xxx-xx--xxx-xxx--xxx-xx--xx-xxxx-|\               e|----xxx-xx--xxx-xxx--xxx-xx--xx-xxxx-| 
B|----xxx-xx--xxx-xxx--xxx-xx--xx-xxxx-| \              B|----xxx-xx--xxx-xxx--xxx-xx--xx-xxxx-| 
G|----444-44--444-44/--666-66--666-66\-|  \ 7x  G|----444-44--444-44/--666-66--666-66~-| 
D|----000-00--000-00---000-00--000-00--|  /             D|----000-00--000-00---000-00--000-00~-| 
A|----555-55--555-55/--777-77--777-77\-| /              A|----555-55--555-55/--777-77--777-77~-| 
D|----555-55--555-55/--777-77--777-77\-|/               D|----555-55--555-55/--777-77--777-77~-| 


_______________________________________________________________________________________ 
Chorus: 3 

e|----x--------xx--xxx--xx-xxx--|--x---------------------------0-------|  
B|----x--------xx--xxx--xx-xxx--|--x--------------0-----3----------2---|  
G|----4~~------77--777--77-777--|--4~~-------0h2-----2-(2)-------------|  
D|----0~~------00--000--00-000--|--0~~-------0-------------------------|  
A|----5~~------99--999--99-999--|--5~~---------------------------------|   
D|----5~~------99--999--99-999--|--5~~----0-------------0--0-----------| 

e|----xx-xxx--xx-xxxx--xx-xxx--xx-xxx--|--x-x--x-x--x-x-xx-x--| 
B|----xx-xxx--xx-xxxx--xx-xxx--xx-xxx--|--x-x--x-x--x-x-xx-x--| 
G|----44-444--44-444/--77-777--77-777--|----------------------| 
D|----00-000--00-000---00-000--00-000--|----------------------| 
A|----55-555--55-555/--99-999--99-999--|----0----0----0-00-0--| 
D|----55-555--55-555/--99-999--99-999--|--5-5s-4-4s-22--22-2--| 

e|-------------------------0-------|\       ----------------------xxxx|   
B|-----------0-----3-----------2---| \      -----------0-----3----xxxx| 
G|------0h2-----2-(2)--------------|  \ 3x  ------0h2-----2-(2)---xxxx|  
D|------0--------------------------|  /     ------0---------------xxxx| 
A|--(0)----------------------------| /      ----------------------xxxx|  
D|---0-------------0--0-----------0|/       ---0-------------0----xxxx|  


_______________________________________________________________________________________ 
Outro: 
                                                  (Slowing Part of Strumming) 
e|--x--x---x-x---x-x-x--|---x---x----x-x---x-x-x---x--| 
B|--x--x---x-x---x-x-x--|---x---x----x-x---x-x-x---x--|  
G|----------------------|-----------------------------|   
D|----------------------|-----------------------------| 
A|-----0-----0-----0-0--|-------0------0-------0---0--| 
D|--5--5---4-4---2-2-0--|---5---5----4-4----2--2---0--| 

e|--x--x-----x-x------x-x-----| ------------------| 
B|--x--x-----x-x------x-x-----| ------------------|  
G|----(0)-----(0)------(0)----| ------------------|   (end) 
D|----(0)-----(0)------(0)----| ------------------| 
A|-----0-------0--------0-----| ---0~~------------| 
D|--5--5/----7-7/-----9-9--12~| ---0~~------------| 

************************************ 

| h    Hammer-on 
| x    Dead note 
| (n)  Ghost note
| ( )  Optional note   
| /    Slide up 
| \    Slide down 
| ~    Vibrato 
  

************************************ 
    	
fixar
fixar inscrever-se

enviado porenviado por: IronPower4Ever
cifra enviadaCorrigida por: sem correções
logo top cifrasComente
ico música do artistaMúsicas deste artista
ico curtiuCurtiu?
ico destaqueDestaque
Petaxxon Comunicação Online

Cifras.com.br - Melhor e mais completo site de cifras e tablaturas do Brasil Mais de 1 milhão de acordes de músicas cadastradas desde 2003
As informações contidas no nosso site são colaborações de seus usuários e podem conter erros, sendo assim, não nos responsabilizamos sobre nenhuma destas.

close
menos
mais
close
Cor dos acordes:

Cor da letra:

close
Alinhar acordes a direita Alinhar acordes a esquerda Alinhar acordes em baixo Alinhar acordes no topo
close
  Mostrar todos os acordes Esconder acordes muito fáceis Esconder acordes fáceis Esconder acordes intermediários
redimensionar
glossário