Cifras e Tablaturas
Relient K

Relient K

Mrs Hippopotamus

Cifras Cancelar Versão de Impressão
cifras

Relient K - Mrs Hippopotamus

fixar na tela  
Exibindo: vídeo-aula ver clipes redimensionar

Tom:

  Intro 

e|-10-10--10-10-10--10-10-10--10-10-10----10---------------------------------------------| 
B|-11-11--11-10-10--10-11-11--11-10-10----10---------------------------------------------| 
G|-12-12--12-12-12--12-12-12--12-12-12----12-----------15-15--15-----------15-15---------| 
D|-12-12--12-12-12--12-12-12--12-12-12----12-13-13--13-15-15--15-13-13--13-15-15---------| 
A|-10-10--10-10-10--10-10-10--10-10-10----10-13-13--13-13-13--13-13-13--13-13-13---------| 
E|-------------------------------------------11-11--11-----------11-11--11---------------| 

e|-10-10--10-10-10--10-10-10--10-10-10----10---------------------------------------------| 
B|-11-11--11-10-10--10-11-11--11-10-10----10---------------------------------------------| 
G|-12-12--12-12-12--12-12-12--12-12-12----12-----------15-15--15-17-17-17-17-17----------| 
D|-12-12--12-12-12--12-12-12--12-12-12----12-13-13--13-15-15--15-------------------------| 
A|-10-10--10-10-10--10-10-10--10-10-10----10-13-13--13-13-13--13-15-15-15-15-15----------| 
E|-------------------------------------------11-11--11-----------------------------------| 


verse 1 

e|---------------------------------------------------------------------------------| 
B|---------------------------------------------------------------------------------| 
G|---------------------------------------------------------------------------------| 
D|-8-8-8-8-8-8-8-8-8-8-8-8-8-8-8-8-7-7-7-7-7-7-7-7-7-7-7-7-7-7-7-7-5-5-5-5-5-5-5-5-| 
A|-8-8-8-8-8-8-8-8-8-8-8-8-8-8-8-8-7-7-7-7-7-7-7-7-7-7-7-7-7-7-7-7-5-5-5-5-5-5-5-5-| 
E|-6-6-6-6-6-6-6-6-6-6-6-6-6-6-6-6-5-5-5-5-5-5-5-5-5-5-5-5-5-5-5-5-3-3-3-3-3-3-3-3-|  

e|---------------------------------------------------| 
B|---------------------------------------------------| 
G|---------------------------------------------------| 
D|-7-7-7-7-7-7-7-7-8-8-8-8-8-8-8-8-8-8-8-8-8-8-8--8--| 
A|-7-7-7-7-7-7-7-7-6-6-6-6-6-6-6-6-6-6-6-6-6-6-6--6--| 
E|-5-5-5-5-5-5-5-5-6-6-6-6-6-6-6-6-6-6-6-6-6-6-6--6--|   *pause 

e|---------------------------------------------------------------------------------| 
B|---------------------------------------------------------------------------------| 
G|---------------------------------------------------------------------------------| 
D|-8-8-8-8-8-8-8-8-8-8-8-8-8-8-8-8-7-7-7-7-7-7-7-7-7-7-7-7-7-7-7-7-5-5-5-5-5-5-5-5-| 
A|-8-8-8-8-8-8-8-8-8-8-8-8-8-8-8-8-7-7-7-7-7-7-7-7-7-7-7-7-7-7-7-7-5-5-5-5-5-5-5-5-| 
E|-6-6-6-6-6-6-6-6-6-6-6-6-6-6-6-6-5-5-5-5-5-5-5-5-5-5-5-5-5-5-5-5-3-3-3-3-3-3-3-3-|  

e|---------------------------------------------------| 
B|---------------------------------------------------| 
G|---------------------------------------------------| 
D|-7-7-7-7-7-7-7-7-8-8-8-8-8-8-8-8-8-8--8--8---------| 
A|-7-7-7-7-7-7-7-7-6-6-6-6-6-6-6-6-8-8--8--8---------| 
E|-5-5-5-5-5-5-5-5-6-6-6-6-6-6-6-6-6-6--6--6---------|    

e|-----------------------------------------------------------------| 
B|-----------------------------------------------------------------| 
G|-----------------------------------------------------------------| 
D|-5-5-5-5-5-5-5-5-3-3-3-3-3-3-3-3-8-8-8-8-8-8-8-8-7-7-7-7-7-7-7-7-| 
A|-5-5-5-5-5-5-5-5-3-3-3-3-3-3-3-3-8-8-8-8-8-8-8-8-7-7-7-7-7-7-7-7-| 
E|-3-3-3-3-3-3-3-3-1-1-1-1-1-1-1-1-6-6-6-6-6-6-6-6-5-5-5-5-5-5-5-5-|   

e|-------------------------------------------------------------------------| 
B|-------------------------------------------------------------------------| 
G|-------------------------------------------------------------------------| 
D|-5-5-5-5-5-5-5-5-7-7-7-7-7-7-7-7-8-8-8-8-8-8-8-8-8-8-8-8-8-8--8--8-------| 
A|-5-5-5-5-5-5-5-5-7-7-7-7-7-7-7-7-8-8-8-8-8-8-8-8-8-8-8-8-8-8--8--8-------| 
E|-3-3-3-3-3-3-3-3-5-5-5-5-5-5-5-5-6-6-6-6-6-6-6-6-6-6-6-6-6-6--6--6-------|   

e|-----------------------------------------------------------------| 
B|-----------------------------------------------------------------| 
G|-----------------------------------------------------------------| 
D|-5-5-5-5-5-5-5-5-3-3-3-3-3-3-3-3-8-8-8-8-8-8-8-8-7-7-7-7-7-7-7-7-| 
A|-5-5-5-5-5-5-5-5-3-3-3-3-3-3-3-3-8-8-8-8-8-8-8-8-7-7-7-7-7-7-7-7-| 
E|-3-3-3-3-3-3-3-3-1-1-1-1-1-1-1-1-6-6-6-6-6-6-6-6-5-5-5-5-5-5-5-5-|   

e|-------------------------------------------------------------------------| 
B|-------------------------------------------------------------------------| 
G|-------------------------------------------------------------------------| 
D|-5-5-5-5-5-5-5-5-7-7-7-7-7-7-7-7-----------------------------------------| 
A|-5-5-5-5-5-5-5-5-7-7-7-7-7-7-7-7-----------------------------------------| 
E|-3-3-3-3-3-3-3-3-5-5-5-5-5-5-5-5-----------------------------------------|   


Chorus 

e|-10-10--10-10-10--10-10-10--10-10-10----10---------------------------------------------| 
B|-11-11--11-10-10--10-11-11--11-10-10----10---------------------------------------------| 
G|-12-12--12-12-12--12-12-12--12-12-12----12-----------15-15--15-----------15-15---------| 
D|-12-12--12-12-12--12-12-12--12-12-12----12-13-13--13-15-15--15-13-13--13-15-15---------| 
A|-10-10--10-10-10--10-10-10--10-10-10----10-13-13--13-13-13--13-13-13--13-13-13---------| 
E|-------------------------------------------11-11--11-----------11-11--11---------------| 

e|-10-10--10-10-10--10-10-10--10-10-10----10---------------------------------------------| 
B|-11-11--11-10-10--10-11-11--11-10-10----10---------------------------------------------| 
G|-12-12--12-12-12--12-12-12--12-12-12----12-----------15-15--15-17-17-17-17-17----------| 
D|-12-12--12-12-12--12-12-12--12-12-12----12-13-13--13-15-15--15-------------------------| 
A|-10-10--10-10-10--10-10-10--10-10-10----10-13-13--13-13-13--13-15-15-15-15-15----------| 
E|-------------------------------------------11-11--11-----------------------------------| 


verse 2 

e|---------------------------------------------------------------------------------| 
B|---------------------------------------------------------------------------------| 
G|---------------------------------------------------------------------------------| 
D|-8-8-8-8-8-8-8-8-8-8-8-8-8-8-8-8-7-7-7-7-7-7-7-7-7-7-7-7-7-7-7-7-5-5-5-5-5-5-5-5-| 
A|-8-8-8-8-8-8-8-8-8-8-8-8-8-8-8-8-7-7-7-7-7-7-7-7-7-7-7-7-7-7-7-7-5-5-5-5-5-5-5-5-| 
E|-6-6-6-6-6-6-6-6-6-6-6-6-6-6-6-6-5-5-5-5-5-5-5-5-5-5-5-5-5-5-5-5-3-3-3-3-3-3-3-3-|  

e|---------------------------------------------------| 
B|---------------------------------------------------| 
G|---------------------------------------------------| 
D|-7-7-7-7-7-7-7-7-8-8-8-8-8-8-8-8-8-8-8-8-8-8-8-8---| 
A|-7-7-7-7-7-7-7-7-6-6-6-6-6-6-6-6-6-6-6-6-6-6-6-6---| 
E|-5-5-5-5-5-5-5-5-6-6-6-6-6-6-6-6-6-6-6-6-6-6-6-6---|    

e|---------------------------------------------------------------------------------| 
B|---------------------------------------------------------------------------------| 
G|---------------------------------------------------------------------------------| 
D|-8-8-8-8-8-8-8-8-8-8-8-8-8-8-8-8-7-7-7-7-7-7-7-7-7-7-7-7-7-7-7-7-5-5-5-5-5-5-5-5-| 
A|-8-8-8-8-8-8-8-8-8-8-8-8-8-8-8-8-7-7-7-7-7-7-7-7-7-7-7-7-7-7-7-7-5-5-5-5-5-5-5-5-| 
E|-6-6-6-6-6-6-6-6-6-6-6-6-6-6-6-6-5-5-5-5-5-5-5-5-5-5-5-5-5-5-5-5-3-3-3-3-3-3-3-3-|  

e|------------------------------------------------------| 
B|------------------------------------------------------| 
G|------------------------------------------------------| 
D|-7-7-7-7-7-7-7-7-8-8-8-8-8-8-8-8-8-8-8-8--8--8--8--8--| 
A|-7-7-7-7-7-7-7-7-6-6-6-6-6-6-6-6-6-6-6-6--6--6--6--6--| 
E|-5-5-5-5-5-5-5-5-6-6-6-6-6-6-6-6-6-6-6-6--6--6--6--6--|    

e|-----------------------------------------------------------------| 
B|-----------------------------------------------------------------| 
G|-----------------------------------------------------------------| 
D|-5-5-5-5-5-5-5-5-3-3-3-3-3-3-3-3-8-8-8-8-8-8-8-8-7-7-7-7-7-7-7-7-| 
A|-5-5-5-5-5-5-5-5-3-3-3-3-3-3-3-3-8-8-8-8-8-8-8-8-7-7-7-7-7-7-7-7-| 
E|-3-3-3-3-3-3-3-3-1-1-1-1-1-1-1-1-6-6-6-6-6-6-6-6-5-5-5-5-5-5-5-5-|   

e|-------------------------------------------------------------------------| 
B|-------------------------------------------------------------------------| 
G|-------------------------------------------------------------------------| 
D|-5-5-5-5-5-5-5-5-7-7-7-7-7-7-7-7-8-8-8-8-8-8-8-8-8-8-8-8-8-8--8--8-------| 
A|-5-5-5-5-5-5-5-5-7-7-7-7-7-7-7-7-8-8-8-8-8-8-8-8-8-8-8-8-8-8--8--8-------| 
E|-3-3-3-3-3-3-3-3-5-5-5-5-5-5-5-5-6-6-6-6-6-6-6-6-6-6-6-6-6-6--6--6-------|   

e|-----------------------------------------------------------------| 
B|-----------------------------------------------------------------| 
G|-----------------------------------------------------------------| 
D|-5-5-5-5-5-5-5-5-3-3-3-3-3-3-3-3-8-8-8-8-8-8-8-8-7-7-7-7-7-7-7-7-| 
A|-5-5-5-5-5-5-5-5-3-3-3-3-3-3-3-3-8-8-8-8-8-8-8-8-7-7-7-7-7-7-7-7-| 
E|-3-3-3-3-3-3-3-3-1-1-1-1-1-1-1-1-6-6-6-6-6-6-6-6-5-5-5-5-5-5-5-5-|   

e|-------------------------------------------------------------------------| 
B|-------------------------------------------------------------------------| 
G|-------------------------------------------------------------------------| 
D|-5-5-5-5-5-5-5-5-7-7-7-7-7-7-7-7-----------------------------------------| 
A|-5-5-5-5-5-5-5-5-7-7-7-7-7-7-7-7-----------------------------------------| 
E|-3-3-3-3-3-3-3-3-5-5-5-5-5-5-5-5-----------------------------------------|   


Chorus 

e|-10-10--10-10-10--10-10-10--10-10-10----10---------------------------------------------| 
B|-11-11--11-10-10--10-11-11--11-10-10----10---------------------------------------------| 
G|-12-12--12-12-12--12-12-12--12-12-12----12-----------15-15--15-----------15-15---------| 
D|-12-12--12-12-12--12-12-12--12-12-12----12-13-13--13-15-15--15-13-13--13-15-15---------| 
A|-10-10--10-10-10--10-10-10--10-10-10----10-13-13--13-13-13--13-13-13--13-13-13---------| 
E|-------------------------------------------11-11--11-----------11-11--11---------------| 

e|-10-10--10-10-10--10-10-10--10-10-10----10---------------------------------------------| 
B|-11-11--11-10-10--10-11-11--11-10-10----10---------------------------------------------| 
G|-12-12--12-12-12--12-12-12--12-12-12----12-----------15-15--15-17-17-17-17-17----------| 
D|-12-12--12-12-12--12-12-12--12-12-12----12-13-13--13-15-15--15-------------------------| 
A|-10-10--10-10-10--10-10-10--10-10-10----10-13-13--13-13-13--13-15-15-15-15-15----------| 
E|-------------------------------------------11-11--11-----------------------------------| 
  

top 5 | relient k
top
Outras músicas do artista letras do(a) Relient K
Top cifras »Top artistas »
Petaxxon Comunicação Online
Cifras.com.br - Melhor e mais completo site de cifras e tablaturas do Brasil
Mais de 1 milhão de acordes de músicas cadastradas desde 2003
As informações contidas no nosso site são colaborações de seus usuários e podem conter erros, sendo assim, não nos responsabilizamos sobre nenhuma destas.
close
menos
mais
close
Cor dos acordes:

Cor da letra:

 

save
close
close
 
redimensionar