Cifras e Tablaturas
Remo Drive

Remo Drive

Hunting For Sport

Cifras Cancelar Versão de Impressão
cifras

Remo Drive - Hunting For Sport

fixar na tela  
Exibindo: vídeo-aula ver clipes redimensionar

Tom:

  
Standard Tuning (EADGBE) 

Intro 
E|------------------------------|-------------| 
B|------------------------------|-------------| let it ring out on the second time 
G|------------------------------|-------------| 
D|--9-9-9-9--9-9-9-9--6-6-6-6---|--6----------| 
A|--9-9-9-9--9-9-9-9--6-6-6-6---|--6----------|  
E|--7-7-7-7--6-6-6-6--4-4-4-4---|--4----------| 
                                              x2            
Verse  
E|------------------------------| 
B|------------------------------|  
G|------------------------------| 
D|--9-9-9-9--9-9-9-9--6-6-6-6---| 
A|--9-9-9-9--9-9-9-9--6-6-6-6---|  x4 
E|--7-7-7-7--6-6-6-6--4-4-4-4---| 

Pre-Chorus 
E|-------------------------------------------| 
B|-------------------------------------------| 
G|--5*-----------5*~~------------------------| let the last note feedback 
D|--------5*---------------------------------| 
A|-------------------------------------------| 
E|-------------------------------------------| x1 

Chorus} 
E|--------------------------------------------| 
B|--------------------------------------------| 
G|--4-4-4--4-4-4------------------------------| 
D|--4-4-4--4-4-4--6-6-6--4-4-4----------------| 
A|--2-2-2--1-1-1--6-6-6--4-4-4----------------| 
E|----------------4-4-4--2-2-2----------------| x2 

E|--------------------------------------------| 
B|--------------------------------------------| 
G|--------------------------------------------| 
D|--2-2-2-2-2-2-2-2-2-------------------------| x1 
A|--2-2-2-2-2-2-2-2-2-------------------------| 
E|--------------------------------------------| 

Post-Chorus 
E|----------------------------|----------------| 
B|----------------------------|----------------| 
G|--4-------------------------|----------------| 
D|--4--2-2--5/6-6*~-----------|---4-4-4--------| 
A|--2--2-2--5/6-6*~-----------|---4-4-4--------| 
E|-----0-0--3/4-4*~-----------|---6-6-6--------| 
                                            x4 
verse 2 
E|------------------------------| 
B|------------------------------|  
G|------------------------------| 
D|--9-9-9-9--9-9-9-9--6-6-6-6---| 
A|--9-9-9-9--9-9-9-9--6-6-6-6---|  x4 
E|--7-7-7-7--6-6-6-6--4-4-4-4---| 

Pre-Chorus 2 
E|-------------------------------------------| 
B|-------------------------------------------| 
G|--5*-----------5*~~------------------------| let the last note feedback 
D|--------5*---------------------------------| 
A|-------------------------------------------| 
E|-------------------------------------------| x1 

Chorus 2  
E|--------------------------------------------| 
B|--------------------------------------------| 
G|--4-4-4--4-4-4------------------------------| 
D|--4-4-4--4-4-4--6-6-6--4-4-4----------------| 
A|--2-2-2--1-1-1--6-6-6--4-4-4----------------| 
E|----------------4-4-4--2-2-2----------------| x2 

E|--------------------------------------------| 
B|--------------------------------------------| 
G|--------------------------------------------| 
D|--2-2-2-2-2-2-2-2-2-------------------------| x1 
A|--2-2-2-2-2-2-2-2-2-------------------------| 
E|--------------------------------------------| 

Bridge 
E|----------------------------------------------| 
B|----------------------------------------------| 
G|------3---4--6-6-6-6-6--4-4-4-4--3-3-3-3------| 
D|--6---3---4--6-6-6-6-6--4-4-4-4--3-3-3-3------| 
A|--6---1---2--4-4-4-4-4--2-2-2-2--1-1-1-1------| 
E|--4-------------------------------------------| 

Outro  
E|----------------------------| 
B|----------------------------| 
G|--4-------------------------| 
D|--4--2-2--5/6-6*------------| 
A|--2--2-2--5/6-6*------------| 
E|-----0-0--3/4-4*------------| 


************************************ 
| *  Natural harmonic 
| /  Slide up  
************************************ 
  

top 5 | remo drive
top rock'n roll
Outras músicas do artista letras do(a) Remo Drive
Top cifras »Top artistas »
Petaxxon Comunicação Online
Cifras.com.br - Melhor e mais completo site de cifras e tablaturas do Brasil
Mais de 1 milhão de acordes de músicas cadastradas desde 2003
As informações contidas no nosso site são colaborações de seus usuários e podem conter erros, sendo assim, não nos responsabilizamos sobre nenhuma destas.
close
menos
mais
close
Cor dos acordes:

Cor da letra:

 

save
close
close
 
redimensionar