Cifras e Tablaturas
Renounced

Renounced

Anxiety In Black And White

Cifras Cancelar Versão de Impressão
cifras

Renounced - Anxiety In Black And White

fixar na tela  
Exibindo: vídeo-aula ver clipes redimensionar

Tom:

  
D|---------------------------------| 
A|---------------------------------| 
F|-----------------------2-5-----2-| 
C|-------------------4-3-----4-3---| x3 
G|---------------------------------| 
C|-000-000-000-000-0---------------| 
   *** *** *** *** * 

D|----------------------| 
A|-----------------5----| 
F|-----------------8----| 
C|----------------------| 
G|----------------------| 
C|-000-000-000-000------| 
   *** *** *** *** 

D|-----------------------------------------------------------------| 
A|-----------------------------------------------------16----------| 
F|-----------------------------------------------19-------19----19-| 
C|--------------------------------------------19----19-------19----| x3 
G|-0-0-0-----0---0-----3--2--1-0-0-0-----0--0----------------------| 
C|-0-0-0-000-0---0-000-5--4--3-0-0-0-000-0--0----------------------| 
   * * * *** *   * ***         * * * *** *  * 

D|----------------------------------------------------13h17p13------------| 
A|--------------------------------------------------15--------15----------| 
F|------------------------------------------------14-------------14-------| 
C|----------------------------------------------15------------------15----| 
G|-0-0-0-----0---0-----3--2--1-0-0-0-----0--0-17-----------------------17-| 
C|-0-0-0-000-0---0-000-5--4--3-0-0-0-000-0--0-----------------------------| 
   * * * *** *   * ***         * * * *** *  * s  w  e  e  p    p  i  c  k  

D|-----------------------------------------------------------------------------------| 
A|-----------------------------------------------------------------------------------| 
F|-777777-10-8-7-121212-555555-333333-777777-10-8-7-121212-151515151515-141414141414-| 
C|-----------------------------------------------------------------------------------| 
G|-555555-8--6-5-101010-333333-111111-555555-8--6-5-101010-131313131313-131313131313-| 
C|-----------------------------------------------------------------------------------| 

D|-----------------------------------------------------------------------------------------------| 
A|-----------------------------------------------------------------------------------------------| 
F|-777777-10-8-7-121212-555555-333333-10-8-7-12-10-8-7-8-10-8-7-8-5--5-5-5-5-5-5-3-3-3-3-3-3-3-3-| 
C|-----------------------------------------------------------------------------------------------| 
G|-555555-8--6-5-101010-333333-111111-8--6-5-10-8--6-5-6-8--6-5-6-3--3-3-3-3-3-3-1-1-1-1-1-1-1-1-| 
C|-----------------------------------------------------------------------------------------------| 

D|-------------------------| 
A|-------------16----------| 
F|----19----19----19----19-| 
C|-19----19----------19----| x8 
G|-------------------------| 
C|-------------------------| 

D|------------------------------------------------------------------| 
A|------------------------------------------------------------------| 
F|------------------------------------------------------------------| 
C|-------------------4-------------4--------------------------------| x2 
G|-0-0-0-0-0-0-0-0-1---0-0-0-0-0-1---0-0-0-0-0-0-0-0-0-0-0-3--2--1--| 
C|-0-0-0-0-0-0-0-------0-0-0-0-0-------0-0-0-0-0-0-0-0-0-0-5--4--3--| 

D|--------------------------------------------| 
A|-----------8--8--8--8--8--8--8--8--8--8--8--| 
F|-----------11-11-11-11-11-11-11-11-11-11-11-| 
C|--------------------------------------------| x4 
G|--------------------------------------------| 
C|-000000000----------------------------------| 
   ********* 

D|-------------------------------------------------| 
A|-------------------------------------------------| 
F|-12----------12----------10----------10----------| 
C|----15-12-15----15-12-15----12-10-12----12-10-12-| 
G|-------------------------------------------------| 
C|-------------------------------------------------| 

D|-------------------------------------------------------------| 
A|----------6--------------6--------------6--------------6-----| 
F|-----7------7-------7------7---------7----7---------7----7---| 
C|-------8------8-------8------8-----8--------8-----8--------8-| x3 
G|-10-------------10-------------10-------------10-------------| 
C|-------------------------------------------------------------| 

D|-------------------------------------------------------------------------------------------------------| 
A|----------6--------------6-----------------------------------------------------------------------------| 
F|-----7------7-------7------7---------------------------------------------------------------------------| 
C|-------8------8-------8------8-1-1-1-1-1-1-1-1-1-1-1-1-1-1-1-13-13-13-13-13-13-13-13-13-13-13-13-13-13-|  
G|-10-------------10-------------1-1-1-1-1-1-1-1-1-1-1-1-1-1-1-13-13-13-13-13-13-13-13-13-13-13-13-13-13-| 
C|-------------------------------1-1-1-1-1-1-1-1-1-1-1-1-1-1-1-13-13-13-13-13-13-13-13-13-13-13-13-13-13-| 

D|------------------------------------------------------------------| 
A|---16---16-------16---16-------16---16-------8--8--8--8--8--8--8--| 
F|---19---19-------19---19-------19---19-------11-11-11-11-11-11-11-| 
C|------------------------------------------------------------------| x2 
G|-0----0--------0----0--------0----0--------0----------------------| 
C|-0----0----000-0----0----000-0----0----000-0----------------------| 
   *    *    *** *    *    *** *    *    *** * 

D|--------------18-----------------------------18------------------------| 
A|---16---16----22---16---16--------16---16----22---8--8--8--8--8--8--8--| 
F|---19---19---------19---19--------19---19---------11-11-11-11-11-11-11-| 
C|-----------------------------------------------------------------------| x2 
G|-0----0----------0----0-------1-0----0----------0----------------------| 
C|-0----0----00----0----0----00-1-0----0----00----0----------------------| 
   *    *    **    *    *    **   *    *    **    * 

D|--------------18--------------------------------| 
A|---16---16----22---16---16--------16---16-------| 
F|---19---19---------19---19--------19---19-------| 
C|------------------------------------------------|  
G|-0----0----------0----0-------1-0----0----------| 
C|-0----0----00----0----0----00-1-0----0----000---| 
   *    *    **    *    *    **   *    *    *** 
  

top 5 | renounced
top rock'n roll
Outras músicas do artista letras do(a) Renounced
Top cifras »Top artistas »
Petaxxon Comunicação Online
Cifras.com.br - Melhor e mais completo site de cifras e tablaturas do Brasil
Mais de 1 milhão de acordes de músicas cadastradas desde 2003
As informações contidas no nosso site são colaborações de seus usuários e podem conter erros, sendo assim, não nos responsabilizamos sobre nenhuma destas.
close
menos
mais
close
Cor dos acordes:

Cor da letra:

 

save
close
close
 
redimensionar