Cifras e Tablaturas
Renounced

Renounced

The Lies We Burn

Cifras Cancelar Versão de Impressão
cifras

Renounced - The Lies We Burn

fixar na tela  
Exibindo: vídeo-aula ver clipes redimensionar

Tom:

  
e|----------------------------------------------------------------| 
B|----------------------------------------------------------------| 
G|------------------------------------------------------4p3-------| 
D|----------------------------3333----------------3p2---------3PH-| x4 
A|-0--0-0-1p0-0-0-0-1-----0-0------0--0-0-1p0-0-0-----------------| 
D|-0--0-0-1p0-0-0-0---2-0-0-0------0--0-0-1p0-0-0-----0-----0-----| 
      * *     * * *     * * *         * *     * *     *     * 

e|--------------------------------| 
B|--------------------------------| 
G|--------------------------------| 
D|-------4PH--------4PH------4PH--| x2 
A|-0-0-0------0-0-0------0-0------| 
D|-0-0-0------0-0-0------0-0------| 
   * * *      * * *      * * 

    e|--------------------------------| 
    B|--------------------------------| 
GTR G|--------------------------------| 
 1  D|-------4PH--------4PH------4PH--| x2 
    A|-0-0-0------0-0-0------0-0------| 
    D|-0-0-0------0-0-0------0-0------| 
       * * *      * * *      * * 

    e|--------------------------------| 
    B|-------11---------11-------11---| 
GTR G|-------14---------14-------14---| 
 2  D|--------------------------------| x2 
    A|-0-0-0------0-0-0------0-0------| 
    D|-0-0-0------0-0-0------0-0------| 
       * * *      * * *      * * 

e|------------ x3 -----------------|----------------------------| 
B|---------------------------------|----------------------------| 
G|---------------------------------|----------------------------| 
D|---5p4---4----5p4---4------------|---5p4---4------0--1--5--4--| x2 
A|-0-----6----0-----6-------1----1-|-0-----6----0-0-0--1--5--4--| 
D|-0----------0----------00-1-00-1-|-0----------0-0-0--1--5--4--| 
   *          *          **   **     *          * *    


e|--------------------------------| 
B|--------------------------------| 
G|--------------------------------| 
D|-------4PH--------4PH------4PH--| x2 
A|-0-0-0------0-0-0------0-0------| 
D|-0-0-0------0-0-0------0-0------| 
   * * *      * * *      * * 

    e|--------------------------------| 
    B|--------------------------------| 
GTR G|--------------------------------| 
 1  D|-------4PH--------4PH------4PH--| x2 
    A|-0-0-0------0-0-0------0-0------| 
    D|-0-0-0------0-0-0------0-0------| 
       * * *      * * *      * * 

    e|--------------------------------| 
    B|-------11---------11-------11---| 
GTR G|-------14---------14-------14---| 
 2  D|--------------------------------| x2 
    A|-0-0-0------0-0-0------0-0------| 
    D|-0-0-0------0-0-0------0-0------| 
       * * *      * * *      * * 

e|--------------| 
B|--------------| 
G|--------------| 
D|-0------------| 
A|-0-(Ring out)-| 
D|-0------------| 

    e|-------------------------------------| 
    B|--------11---------11-----12-----10--| 
GTR G|--------14---------14-----15-----13--| 
 1  D|-------------------------------------| x1 
    A|-0-0-0------0-0-0------0------0------| 
    D|-0-0-0------0-0-0------0------0------| 
       * * *      * * *      *      *  

    e|-------------------------------------| 
    B|--------11---------11-----12-----10--| 
GTR G|--------14---------14-----15-----13--| 
 1  D|-------------------------------------| x4 
    A|-0-0-0------0-0-0------0------0------| 
    D|-0-0-0------0-0-0------0------0------| 
       * * *      * * *      *      *  

Speed up gradually ^ 

e|----------- x3 --------------------|------------------------------| 
B|-----------------------------------|------------------------------| 
G|-----------------------------------|------------------------------| 
D|-----------------------------------|------------------0--1--5--4--| x2 
A|-0--5p4-0-4--0--5p4-0-4-----1----1-|-0--5p4-0-4-------0--1--5--4--| 
D|-0--5p4-0-4--0--5p4-0-4--00-1-00-1-|-0--5p4-0-4--0000-0--1--5--4--| 
   *      *    *      *    **   **     *      *    ****  

e|-------------------- x3 ------------------------|------------------------------------------------| 
B|------------------------------------------------|------------------------------------------------| 
G|------------------------------------------------|------------------------------------------------| 
D|------------------------------------------------|------------------------0--1--5--4-4------------| 
A|------------------------------------------------|--------------------0-0-0--1--5--4-4-(Ring out)-| 
D|-00-55-44-00-444444-55-44-00-444444-00-11-00-11-|-00-55-44-00-444444-0-0-0--1--5--4-4------------| 
   ** ** ** ** ****** ** ** ** ****** ** ** ** **   ** ** ** ** ****** * * 

    e|------------------------------------------------0-----| 
    B|--------7------------7--------------7-------------7---| 
GTR G|------6---6--------6---6----------6---6-------6-----6-| 
 1  D|----9-------9----9-------9------9-------9---9---------| x3 
    A|-10-----------10-----------10-9-----------9-----------| 
    D|------------------------------------------------------| 

    e|------------------------------------------------------| 
    B|------------------------------------------------------| 
GTR G|------------------------------------------------------| 
 2  D|-5----------------------------4-----------2-----------| x3 
    A|-5-(Ring out)-----------------4-(Ring out)2-(Ring out)| 
    D|-5----------------------------4-----------2-----------| 

    e|------------------------------------------------------| 
    B|--------7------------7--------7-7-7-7-7-7-7-7-7-7-7-7-| 
GTR G|------6---6--------6---6------6-6-6-6-6-6-6-6-6-6-6-6-| 
 1  D|----9-------9----9-------9----9-9-9-9-9-9-9-9-9-9-9-9-| 
    A|-10-----------10-----------10-9-9-9-9-9-9-9-9-9-9-9-9-| 
    D|------------------------------------------------------| 

    e|------------------------------------------------------| 
    B|------------------------------------------------------| 
GTR G|------------------------------------------------------| 
 2  D|-5----------------------------------------------------|  
    A|-5-(Ring out)-----------------4-4-4-4-4-4-4-4-4-4-4-4-| 
    D|-5----------------------------4-4-4-4-4-4-4-4-4-4-4-4-| 
                                    * * * * * * * * * * * * 

e|-------------------------------------------------------------------------------------------------| 
B|-------------------------------------------------------------------------------------------------| 
G|-12-12121212-12-12121212-12-12121212-12-12121212-11-11111111-11-11111111-14-14141414-14-14141414-| 
D|-9--9-9-9-9--9--9-9-9-9--9--9-9-9-9--9--9-9-9-9--12-12121212-12-12121212-12-12121212-12-12121212-| 
A|-10-10101010-10-10101010-10-10101010-10-10101010-10-10101010-10-10101010-10-10101010-10-10101010-| 
D|-------------------------------------------------------------------------------------------------| 

e|--------------------------------------------------------------------------------------------| 
B|--------------------------------------------------------------------------------------------| 
G|-12-12121212-12-12121212-12-12121212-12-12121212-11-11111111-11-11111111-9-9999-14-14141414-| 
D|-9--9-9-9-9--9--9-9-9-9--9--9-9-9-9--9--9-9-9-9--12-12121212-12-12121212-7-7777-12-12121212-| 
A|-9--9-9-9-9--9--9-9-9-9--9--9-9-9-9--9--9-9-9-9--9--9-9-9-9--9--9-9-9-9--9-9999-14-14141414-| 
D|-9--9-9-9-9--9--9-9-9-9--9--9-9-9-9--9--9-9-9-9--9--9-9-9-9--9--9-9-9-9---------------------| 

Play above two bars x2, then... 

    e|-------------------------------------------------------------------------------------------------| 
    B|-------------------------------------------------------------------------------------------------| 
GTR G|-12-12121212-12-12121212-12-12121212-12-12121212-11-11111111-11-11111111-14-14141414-14-14141414-| 
 1  D|-9--9-9-9-9--9--9-9-9-9--9--9-9-9-9--9--9-9-9-9--12-12121212-12-12121212-12-12121212-12-12121212-| 
    A|-10-10101010-10-10101010-10-10101010-10-10101010-10-10101010-10-10101010-10-10101010-10-10101010-| 
    D|-------------------------------------------------------------------------------------------------| 

    e|---------------------------------------------------------------------------------------------------| 
    B|---------------------------------------5---5---5-----5---5---5---7---7---7---7---7---7---8---7---7-| 
GTR G|---4---4---4---6---6---6---7---7---7---------------------------------------------------------------| 
 2  D|-5---5---5---5---5---5---5---5---5---5---5---5---5-9---9---9---9---9---9---9---9---9---9---9---9---| 
    A|---------------------------------------------------------------------------------------------------| 
    D|---------------------------------------------------------------------------------------------------| 

    e|--------------------------------------------------------------------------------------------| 
    B|--------------------------------------------------------------------------------------------| 
GTR G|-12-12121212-12-12121212-12-12121212-12-12121212-11-11111111-11-11111111-9-9999-14-14141414-| 
 1  D|-9--9-9-9-9--9--9-9-9-9--9--9-9-9-9--9--9-9-9-9--12-12121212-12-12121212-7-7777-12-12121212-| 
    A|-9--9-9-9-9--9--9-9-9-9--9--9-9-9-9--9--9-9-9-9--9--9-9-9-9--9--9-9-9-9--9-9999-14-14141414-| 
    D|-9--9-9-9-9--9--9-9-9-9--9--9-9-9-9--9--9-9-9-9--9--9-9-9-9--9--9-9-9-9---------------------| 

    e|---------------------------------------------------------------------------------------------------| 
    B|---------------------------------------5---5---5-----5---5---5---7---7---7---7---7---7---8---7---7-| 
GTR G|---4---4---4---6---6---6---7---7---7---------------------------------------------------------------| 
 2  D|-5---5---5---5---5---5---5---5---5---5---5---5---5-9---9---9---9---9---9---9---9---9---9---9---9---| 
    A|---------------------------------------------------------------------------------------------------| 
    D|---------------------------------------------------------------------------------------------------| 

Play above bit x2, then... 

    e|---------------------------------------------------------------------------------------------------| 
    B|---------------------------------------5---5---5-----5---5---5---7---7---7---7---7---7---8---7---7-| 
GTR G|---4---4---4---6---6---6---7---7---7---------------------------------------------------------------| 
 2  D|-5---5---5---5---5---5---5---5---5---5---5---5---5-9---9---9---9---9---9---9---9---9---9---9---9---| x1 
    A|---------------------------------------------------------------------------------------------------| 
    D|---------------------------------------------------------------------------------------------------| 

    e|------ x3 --------|-------------------|------ x3 -------|------------------| 
    B|------------------|-10-------10-------|-----------------|-10---------------| 
GTR G|------11-12-11----|-------------------|-----11-12-11----|----12-11-12-11-9-| 
 1  D|----9----------12-|----12-------12----|---9----------12-|------------------| 
    A|-10---------------|-------10-------10-|-9---------------|------------------| 
    D|------------------|-------------------|-----------------|------------------| 

    e|------------------------------------------------------------------------------------------------------| 
    B|-7NH-------7NH---------7NH-------7NH-------7NH-------7NH-------7NH------------7NH---------7NH---------| 
GTR G|----------------7NH-------------------7NH-----------------7NH------------7NH------7NH---------7NH-----| 
 2  D|--------------------------------------------------------------------------------------7NH---------7NH-| 
    A|------5NH-------------------5NH-----------------5NH-----------------5NH-------------------------------| 
    D|------------------------------------------------------------------------------------------------------| 

Play the clean section with all guitars x3  

e|-------| 
B|-------| 
G|-------| 
D|-------| 
A|-10----| 
D|-------|


PH = Pinched harmonic 
* = Palm mute 
 
  

top 5 | renounced
top rock'n roll
Outras músicas do artista letras do(a) Renounced
Top cifras »Top artistas »
Petaxxon Comunicação Online
Cifras.com.br - Melhor e mais completo site de cifras e tablaturas do Brasil
Mais de 1 milhão de acordes de músicas cadastradas desde 2003
As informações contidas no nosso site são colaborações de seus usuários e podem conter erros, sendo assim, não nos responsabilizamos sobre nenhuma destas.
close
menos
mais
close
Cor dos acordes:

Cor da letra:

 

save
close
close
 
redimensionar