Cifras e Tablaturas
Renounced

Renounced

When History Repeats As Tragedy

Cifras Cancelar Versão de Impressão
cifras

Renounced - When History Repeats As Tragedy

fixar na tela  
Exibindo: vídeo-aula ver clipes redimensionar

Tom:

  
e|---------------------------------------------------------------------------------------------------| 
B|-------------------------------------------------------------------9--------9---------9--------9---| 
G|-------------------------------------------------------------------12-------12--------12-------12--| 
D|-10101010101010-12121212121212-14141414141414-10101010101010---------------------------------------| x2 
A|-8-8-8-8-8-8-8--8-8-8-8-8-8-8--8-8-8-8-8-8-8--8-8-8-8-8-8-8----------------------------------------| 
D|-8-8-8-8-8-8-8--8-8-8-8-8-8-8--8-8-8-8-8-8-8--8-8-8-8-8-8-8--000-0----000-0-----000-0-----000-0----| 
                                                               *** *    *** *     *** *     *** * 

e|-----------------------------------------------------------------------------------------------------------| 
B|------------------------------------------------------------------9--------9-----9--------9--------9----9--| 
G|------------------------------------------------------------------12-------12----12-------12-------12---12-| 
D|-10101010101010-12121212121212-14141414141414-10101010101010-----------------------------------------------| 
A|-8-8-8-8-8-8-8--8-8-8-8-8-8-8--8-8-8-8-8-8-8--8-8-8-8-8-8-8------------------------------------------------| 
D|-8-8-8-8-8-8-8--8-8-8-8-8-8-8--8-8-8-8-8-8-8--8-8-8-8-8-8-8--000-0---000-0----00----000-0---000-0----00----| 
                                                               *** *   *** *    **    *** *   *** *    ** 

e|-------------------------------------------------------------|------- x3 --------------------|---------| 
B|-------------------------------------------------------------|-------------------------------|---------| 
G|-------------------------------------------------------------|-------------------------------|---------| 
D|-10101010101010-12121212121212-14141414141414-10101010101010-|-------------------------------|---------| 
A|-8-8-8-8-8-8-8--8-8-8-8-8-8-8--8-8-8-8-8-8-8--8-8-8-8-8-8-8--|-------------------------------|-0-0-0-0-| 
D|-8-8-8-8-8-8-8--8-8-8-8-8-8-8--8-8-8-8-8-8-8--8-8-8-8-8-8-8--|-000-0-000-0-000-0-000-0-000-0-|-1-1-1-1-| 
                                                                 *** * *** * *** * *** * *** *   * * * * 

Don't play final 0 on the repeated riff on the third time. 

e|------------------------------------------------------------------------------------------------| 
B|------------------------------------------------------------------------------------------------| 
G|------------------------------------------------------------------------------------------------| 
D|------------------------------------------------------------------------------------------------| 
A|-0-000-000-000-000000-0-000-000-000-000000-1-111-111-111-111111---------------------------------| 
D|-0-000-000-000-000000-1-111-111-111-111111-3-333-333-333-333333-1-2-1-0-1-2-1-0-1-2-1-0-1-2-1-0-| 
     **  **  **  ** * *   **  **  **  ** * *   **  **  **  ** * * 

e|----------------------------------------------------------------|----------- x2 ------------------| 
B|----------------------------------------------------------------|---------------------------------| 
G|----------------------------------------------------------------|---------------------------------| 
D|----------------------------------------------------------------|---------------------------------| 
A|-0-000-000-000-000000-0-000-000-000-000000-1-111-111-111-111111-|---------------------------------| 
D|-0-000-000-000-000000-1-111-111-111-111111-3-333-333-333-333333-|-1-2-1-0-1-2-1-0-1-2-1-0-1-2-1-0-| 
     **  **  **  ** * *   **  **  **  ** * *   **  **  **  ** * * 

    e|--- x3 ---|--- x3 ---|--- x3 ---|---------------------------------| 
    B|----------|----------|----------|---------------------------------| 
GTR G|----------|----------|----------|---------------------------------| 
 1  D|----------|----------|----------|---------------------------------| 
    A|-000-000--|-000-000--|-000-000--|---------------------------------| 
    D|-000-000--|-111-111--|-333-333--|-1-2-1-0-1-2-1-0-1-2-1-0-1-2-1-0-| 
       *** ***    *** ***    *** *** 

    e|---------- x3 --------------------|---------------------------------| 
    B|----------------------------------|---------------------------------| 
GTR G|----------------------------------|---------------------------------| 
 2  D|-8-7---8-7---8-7---8-7-8-10-8-7---|---------------------------------| 
    A|-----8-----8-----8--------------8-|---------------------------------| 
    D|----------------------------------|-1-2-1-0-1-2-1-0-1-2-1-0-1-2-1-0-| 


    e|--- x3 ---|--- x3 ---|--- x3 ---|---------- x2 -------------------| 
    B|----------|----------|----------|---------------------------------| 
GTR G|----------|----------|----------|---------------------------------| 
 1  D|----------|----------|----------|---------------------------------| 
    A|-000-000--|-000-000--|-000-000--|---------------------------------| 
    D|-000-000--|-111-111--|-333-333--|-1-2-1-0-1-2-1-0-1-2-1-0-1-2-1-0-| 
       *** ***    *** ***    *** *** 

    e|---------- x3 --------------------|-------- x2 ---------------------| 
    B|----------------------------------|---------------------------------| 
GTR G|----------------------------------|---------------------------------| 
 2  D|-8-7---8-7---8-7---8-7-8-10-8-7---|---------------------------------| 
    A|-----8-----8-----8--------------8-|---------------------------------| 
    D|----------------------------------|-1-2-1-0-1-2-1-0-1-2-1-0-1-2-1-0-| 

e|-------------| 
B|-------------| 
G|-------------| 
D|-1--2--1--0--| x4 
A|-1--2--1--0--| 
D|-1--2--1--0--| 

Gradually slow down ^ 

    e|---------------------| 
    B|---10---10---10---10-| 
GTR G|---13---13---13---13-| 
 1  D|---------------------| repeat for ages 
    A|---------------------| 
    D|-0----0----0----0----| 
       *    *    *    * 

    e|---- x3 ------|------------| 
    B|--------------|------------| 
GTR G|--------------|------------| 
 2  D|--------------|------------| x3 
    A|-0--1--0--4PH-|-0--1--4--3-| 
    D|-0--1--0------|-0--1--4--3-| 
       *  *  *        *  *  *  * 

    e|--------------------------------------| 
    B|---10---10---10---10------------------| 
GTR G|---13---13---13---13-7-8-10-11-10-8-7-| 
 1  D|--------------------------------------| 
    A|---------------------5-6-8--9--8--6-5-| 
    D|-0----0----0----0---------------------| 
       *    *    *    * 

    e|---- x3 ------|------------------| 
    B|--------------|------------------| 
GTR G|--------------|------------------| 
 2  D|--------------|-7-8-10-11-10-8-7-| 
    A|-0--1--0--4PH-|-5-6-8--9--8--6-5-| 
    D|-0--1--0------|------------------| 
       *  *  * 

    e|----------------------------------------------------------| 
    B|----------------------------------------------------------| 
GTR G|----------------------------------------------------------| 
 1  D|----------------------------------------------------------| x2 
    A|-6-----6-----6---6-----6-----6-------6---6---6-5----------| 
    D|---0-0---0-0---0---4-4---4-4---4-0-0---0---0--------0-0-0-| 
         * *   * *   *   * *   * *   * * *   *   *        * * * 


    e|----------------------------------------------------------| 
    B|----------------------------------------------------------| 
GTR G|----------------------------------------------------------| 
 1  D|----------------------------------------------------------| x4 
    A|-6-----6-----6---6-----6-----6-------6---6---6-5----------| 
    D|---0-0---0-0---0---4-4---4-4---4-0-0---0---0--------0-0-0-| 
         * *   * *   *   * *   * *   * * *   *   *        * * * 

    e|-----------------------------------------------------------| 
    B|-----------------------------------------------------------| 
GTR G|-------5-----------5-----7h8p7---------8---8---------------| 
 2  D|-5-7-8---8-7-5-7-8---8-7-------8-7-----5---5---1-0---------| x4 
    A|-----------------------------------0-0-6-0-6-0-1-0---0-0-0-| 
    D|-----------------------------------0-0---0---0-1-0---0-0-0-| 
                                         * *   *   *       * * * 

    e|---------------------------------| 
    B|---------------------------------| 
GTR G|---------------------------------| 
 1  D|---------------------------------| 
    A|-6-----6-----6---6-----6-----6---| 
    D|---0-0---0-0---0---4-4---4-4---4-| 
         * *   * *   *   * *   * *   * 

    e|-----------------------------------| 
    B|-----------------------------------| 
GTR G|-------5-----------5-----7h8p7-----| 
 2  D|-5-7-8---8-7-5-7-8---8-7-------8-7-| 
    A|-----------------------------------| 
    D|-----------------------------------| 

e|------------------------------------------------------| 
B|------------------------------------------------------| 
G|------------------------------------------------------| 
D|-0--1--4--3--0--------1--3--0--1--4--3----------------| x4 
A|-0--1--4--3--0--------1--3--0--1--4--3--0-1-0-4-3-0-1-| 
D|-0--1--4--3--0--0h1h4-1--3--0--1--4--3--0-1-0-4-3-0-1-| 
                                          * * * * * * 

    e|-----------------------------------------------------------------| 
    B|-----------------------7--------------------------7----7----7----| 
GTR G|--------------------10---10--------------------10---10---10---10-| 
 1  D|-----------------------------------------------------------------| 
    A|-0-0--0-0--0-0--0-0---------0-0--0-0--0-0--0-0-------------------| 
    D|-0-0--0-0--0-0--0-0---------0-0--0-0--0-0--0-0-------------------| 
       * *  * *  * *  * *         * *  * *  * *  * * 

    e|---------------------------------------------------------------| 
    B|-----------------------7----------------7------------7----7----| 
GTR G|--------------------10---10----------10---10------10---10---10-| 
1+2 D|---------------------------------------------------------------| 
    A|-0-0--0-0--0-0--0-0---------0-0--0-0---------0-0---------------| 
    D|-0-0--0-0--0-0--0-0---------0-0--0-0---------0-0---------------| 
       * *  * *  * *  * *         * *  * *         * * 

    e|-------------------------------------------------------| 
    B|------------------7----9----9----------------9---------| 
GTR G|---------------10---10---12---12-------------12--------| 
 1  D|-------------------------------------------------------| 
    A|-0-0--0-0--0-0-------------------0-0--0--0-0-----------| 
    D|-0-0--0-0--0-0-------------------0-0--0--0-0-----------| 
       * *  * *  * *                   * *  *  * * 

    e|-------------------------------------------------------| 
    B|------------------7----9----9----------------7---------| 
GTR G|---------------10---10---12---12-------------10--------| 
 2  D|-------------------------------------------------------| 
    A|-0-0--0-0--0-0-------------------0-0--0--0-0-----------| 
    D|-0-0--0-0--0-0-------------------0-0--0--0-0-----------| 
       * *  * *  * *                   * *  *  * * 
  

top 5 | renounced
top rock'n roll
Outras músicas do artista letras do(a) Renounced
Top cifras »Top artistas »
Petaxxon Comunicação Online
Cifras.com.br - Melhor e mais completo site de cifras e tablaturas do Brasil
Mais de 1 milhão de acordes de músicas cadastradas desde 2003
As informações contidas no nosso site são colaborações de seus usuários e podem conter erros, sendo assim, não nos responsabilizamos sobre nenhuma destas.
close
menos
mais
close
Cor dos acordes:

Cor da letra:

 

save
close
close
 
redimensionar