Cifras e Tablaturas
Rey Pila

Rey Pila

No Longer Fun

Cifras Cancelar Versão de Impressão
cifras

Rey Pila - No Longer Fun

fixar na tela  
Exibindo: vídeo-aula ver clipes redimensionar
  Intro: 

e|---------------------------------------------| 
B|---------------------------------------------| 
G|---------------------------------------------| 
D|---------------------------------------------| 
A|--7-7-7-----------------7-7-7----------------| 
E|---------8h9-0-0-0--8h9--------8h9-10-10-10--| 

e|---------------------------------------------------| 
B|---------------------------------------------------| 
G|---------------------------------------------------| 
D|---------------------------------------------------| 
A|------7-7-7-----------------7-7-9-7----------------| 
E|--8h9--------8h9-0-0-0--8h9----------8h9-10-10-10--| 

Chorus: 

e|--------------| 
B|--------------| 
G|--------------| 
D|--7--6--5--4--| 
A|--7--6--5--4--| 
E|--5--4--3--2--| 

AFTER Chorus: 

e|-------------------------------------------------| 
B|-------------------------------------------------| 
G|----------------------------9-9-9----------------| 
D|----------------------------9-9-9------12-12-12--| 
A|------7-7-7-----------------7-7-7------12-12-12--| 
E|--8h9--------8h9-0-0-0--8h9--------8h9-10-10-10--| 

e|-------------------------------------------------| 
B|-------------------------------------------------| 
G|------9-9-9-----------------9-9-9----------------| 
D|------9-9-9-----------------9-9-9------12-12-12--| 
A|------7-7-7-----------------7-7-7------12-12-12--| 
E|--8h9--------8h9-0-0-0--8h9--------8h9-10-10-10--| 

Solo: 

    A                 G#                G                 F#m 
e|--5-5-5-5-5-5-------4-4-4-4-4-4-------3-3-3-3-3-3-------2-2-2-2-2-2-------| 
B|--5-5-5-5-5-5-------4-4-4-4-4-4-------3-3-3-3-3-3-------2-2-2-2-2-2-------| 
G|--6-6-6-6-6-6-(x2)--5-5-5-5-5-5-(x2)--4-4-4-4-4-4-(x2)--2-2-2-2-2-2-(x2)--| 
D|--7-7-7-7-7-7-------6-6-6-6-6-6-------5-5-5-5-5-5-------4-4-4-4-4-4-------| 
A|--7-7-7-7-7-7-------6-6-6-6-6-6-------5-5-5-5-5-5-------4-4-4-4-4-4-------| 
E|--5-5-5-5-5-5-------4-4-4-4-4-4-------3-3-3-3-3-3-------2-2-2-2-2-2-------| 

    A                 B                 C#m                     D 
e|--5-5-5-5-5-5-------7-7-7-7-7-7-------9--9--9--9--9--9--------10-10-10-10-10-10-------| 
B|--5-5-5-5-5-5-------7-7-7-7-7-7-------9--9--9--9--9--9--------10-10-10-10-10-10-------| 
G|--6-6-6-6-6-6-(x2)--8-8-8-8-8-8-(x2)--9--9--9--9--9--9-(x2)---11-11-11-11-11-11-(x2)--| 
D|--7-7-7-7-7-7-------9-9-9-9-9-9-------11-11-11-11-11-11-------12-12-12-12-12-12-------| 
A|--7-7-7-7-7-7-------9-9-9-9-9-9-------11-11-11-11-11-11-------12-12-12-12-12-12-------| 
E|--5-5-5-5-5-5-------7-7-7-7-7-7-------9--9--9--9--9--9--------10-10-10-10-10-10-------| 


e|----------------------------------7------| 
B|--5--9-7-5-7-5-----5-7-5--9-7-5-----7-5--| 
G|---------------4-6--------------4--------| 
D|-----------------------------------------| 
A|-----------------------------------------| 
E|-----------------------------------------| 

e|--------------------------------------------------| 
B|------5-7-5--9-7-5-7-5------5--7-5---7-5---7-5----| 
G|--4-6-------------------4-6--------6-----6-----6--| 
D|--------------------------------------------------| 
A|--------------------------------------------------| 
E|--------------------------------------------------| 

e|---------------------------------------------------| 
B|--5--9-7-5-7-5-----5-7-7--9-7-7-----5-7-9--10-9-9--| 
G|---------------4-6--------------4-6----------------| 
D|---------------------------------------------------| 
A|---------------------------------------------------| 
E|---------------------------------------------------| 

e|-------------------------------------------------| 
B|------5-7-10--5-7-10-12-10--7-5---7-5---7-5---5--| 
G|--4-6---------------------------6-----6-----6----| 
D|-------------------------------------------------| 
A|-------------------------------------------------| 
E|-------------------------------------------------| 

END: 

    A      G#     G      F#m    A 
e|--5-5-5--4-4-4--3-3-3--2-2-2--5--5--| 
B|--5-5-5--4-4-4--3-3-3--2-2-2--5-----| 
G|--6-6-6--5-5-5--4-4-4--2-2-2--6-----| 
D|--7-7-7--6-6-6--5-5-5--4-4-4--7-----| 
A|--7-7-7--6-6-6--5-5-5--4-4-4--7-----| 
E|--5-5-5--4-4-4--3-3-3--2-2-2--5-----| 


Watch the video: youtube.com/watch?v=jGqcZekzRfI 
  

cifra enviadasem correções
enviado porenviada por:alyslima
top 5 | rey pila
top rock'n roll
Outras músicas do artista letras do(a) Rey Pila
Top cifras »Top artistas »
Petaxxon Comunicação Online
Cifras.com.br - Melhor e mais completo site de cifras e tablaturas do Brasil
Mais de 1 milhão de acordes de músicas cadastradas desde 2003
As informações contidas no nosso site são colaborações de seus usuários e podem conter erros, sendo assim, não nos responsabilizamos sobre nenhuma destas.
close
menos
mais
close
Cor dos acordes:

Cor da letra:

 

save
close
close
 
redimensionar