Cifras e Tablaturas
Ricky Furlani

Ricky Furlani

A Cura

Cifras Cancelar Versão de Impressão
cifras

Ricky Furlani - A Cura

fixar na tela  
Exibindo: vídeo-aula ver clipes redimensionar

Tom:

  
Primeira Parte: 

E|-0------0--------------------------------------------| 
B|-3/5----3--------------3h5---------------------------| 
G|-----------2b3r2p0-2/4-------------------------------| 
D|-----------------------------------------------------| 
A|-----------------------------------------------------| 
E|-----------------------------------------------------| 

E|---------------------------------12--12--------------| 
B|------------7h8p7----------------10--11p10-----10----| 
G|--------7h9-7-----9~------------------------12-------| 
D|-----/9----------------------------------------------| 
A|-----------------------------------------------------| 
E|-0--------------------\2p0--3~-----------------------| 

E|------12--12-----------------------------------------| 
B|------10--11p10-----10----------8/10~---10b12--8b10r8| 
G|-----------------12-----12-9\7-----------------------| 
D|-----------------------------------------------------| 
A|-----------------------------------------------------| 
E|-3~--------------------------------------------------| 

E|------------0---------------------0------------------| 
B|-5---8-5~------------------2/3-----------------------| 
G|---6----------2b3r2p0--2/4-3/4------2/3\2p0----------| 
D|--------------------------------------------2p0------| 
A|------------------------------------------------2p0--| 
E|-----------------------------------------------------| 

E|----------------------------------------12-----------| 
B|------------7h8p7----------------10b12------b12~-----| 
G|--------7h9-7-----9~---------------------------------| 
D|-----/9----------------------------------------------| 
A|-----------------------------------------------------| 
E|-0--------------------\2p0--3~-----------------------| 

E|-12--------------------------------------------------| 
B|----b12r10p8-10b12-8h10~---10--8---------------------| 
G|----------------------------------7------------------| 
D|-------------------------------------5b--------------| 
A|-----------------------------------------7~----------| 
E|-----------------------------------------------------| 

E|-----------------------------------------------------| 
B|--------------------------------------3--------------| 
G|----------------------------/4-3/4------4\2p0--------| 
D|----------5------------------------------------------| 
A|-5h7~---7----7~--------------------------------------| 
E|------------------3--3-0-----------------------------| 

E|-----------------------------------------------------| 
B|-----------------3-3-5---------------3-3-5-----------| 
G|-2/4-3/4~---2/4--------4\2--2p0-2/4--------4\2p0--2-2| 
D|-----------------------------------------------------| 
A|-----------------------------------------------------| 
E|-----------------------------------------------------| 

E|-----------------------------------------------------| 
B|------------------------3----------------------------| 
G|-4--6--6b7r6p4\2----2/4---4\2p0----2--0h1------------| 
D|--------------------------------2----------2p0-------| 
A|-----------------------------------------------2-----| 
E|--------------------------------------------------3-3| 

E|-----------------------------------------------------| 
B|-----------------------------------------------------| 
G|-----------------------------------------------------| 
D|-----------------------------------------------------| 
A|-----------------------------------------------------| 
E|-0---------------------------------------------------| 


Segunda Parte: 

E|-----------------------------------------------------| 
B|-----------------------------------------------------| 
G|---------------------7b9r7--4--7/9-------------------| 
D|------5--7/9--5h7~-----------------7h9~--------------| 
A|-5/7-------------------------------------------------| 
E|-----------------------------------------------------| 

E|-----------------------------------------------------| 
B|------------------------------------3-3--------------| 
G|-0h2--4--4b5r4-4~p2--2~p0--0h2--2~--2-2--------------| 
D|------------------------------------0-0--------------| 
A|-----------------------------------------------------| 
E|-----------------------------------------------------| 

E|-----------------------------------------------------| 
B|-----------------------------------------------------| 
G|-0h2--2/3p2--2~---0--0h2h3--2~-----------------------| 
D|-----------------------------------------------------| 
A|-----------------------------------------------------| 
E|-----------------------------------------------------| 

E|-----------------------------------------------------| 
B|----------------------------------3------------------| 
G|----------------------------------2------------------| 
D|----------------------------------0------------------| 
A|-\5-5h7~--5h7br7p5\3-5/7----3~p0---------------------| 
E|-----------------------------------------------------| 

E|-----------------------------------------------------| 
B|-----------------------------------------------------| 
G|-7h9--7----------------------------------------------| 
D|---------7h9--7--------------------------------------| 
A|-----------------\7--5~------------------------------| 
E|-----------------------------------------------------| 

E|-----------------------------------------------------| 
B|-10--10b11r10--10~p8--8~--8--10--10/11--8h10~\5--5~--| 
G|-----------------------------------------------------| 
D|-----------------------------------------------------| 
A|-----------------------------------------------------| 
E|-----------------------------------------------------| 

                           H.N 
E|-----------------------------------------------------| 
B|-\3h5-6b8r6--5\--1--3----12--------------------------| 
G|--------------------2----12--------------------------| 
D|--------------------0----12--------------------------| 
A|-----------------------------------------------------| 
E|-----------------------------------------------------| 

E|-12-----12-----12-----12-----------------------------| 
B|-15b17--15b17--15b17--15b17~-------------------------| 
G|-------------------------------2/3\2p0---------------| 
D|---------------------------------------2p0-----------| 
A|-------------------------------------------2---------| 
E|---------------------------------------------0-------| 


Primeira Parte (Repetição): 

E|------------------------------12--12-----------------| 
B|--------7h8p7-----------------10--11p10-----10-------| 
G|----7h9-7-----9~\------------------------12-----12---| 
D|-/9-----7--------------------------------------------| 
A|-----------------------------------------------------| 
E|--------------------2p0--3~--------------------------| 

E|-----------------------------------------------------| 
B|------8/10~---10b12r--8b10r8--5---8--5~--------------| 
G|-9\7----------------------------6--------------------| 
D|-----------------------------------------------------| 
A|-----------------------------------------------------| 
E|-----------------------------------------------------| 

E|-0-------------------0-------------------------------| 
B|-----------------------------------------------------| 
G|---2b3r2p0-2/4-/4~-----2/3\2p0-----------------------| 
D|-------------------------------2p0-------------------| 
A|-----------------------------------2-----------------| 
E|-----------------------------------------------------| 

E|-----------------------------------------------------| 
B|-----------------------------------8p0--7h8p7--------| 
G|-------------------------7p0--9p0-------------9--7---| 
D|----------5p0--7p0--7/9------------------------------| 
A|------/7---------------------------------------------| 
E|-0---------------------------------------------------| 

E|-----------------------------------------------------| 
B|----------------------7-8----------------------------| 
G|-9/11--7-7~\------7-9-----9~-------------------------| 
D|---------------/9------------------------------------| 
A|-----------------------------------------------------| 
E|-----------------------------------------------------| 

E|-----------------------------------------------------| 
B|-----------------------------------------------------| 
G|-----------12-12h14p12-------------------------------| 
D|-----12-14-------------14-14p12----------------------| 
A|-/14----------------------------14\12p10-------------| 
E|-----------------------------------------12----------| 

E|-----------------------------------------------------| 
B|-----------------------------------------------------| 
G|-12h14p12--------------------------------------------| 
D|----------14-14p12-----------------------------------| 
A|-------------------14\12p10--------------------------| 
E|----------------------------12-----------------------| 

E|-----------------------------------------------------| 
B|-----------------------------------------------------| 
G|-12h14p12--------------------------------------------| 
D|----------14-14p12-----------------------------------| 
A|-------------------14\12p10-----/14--10b-------------| 
E|----------------------------12-----------------------| 


Segunda Parte (Repetição): 

E|-----------------------------------------------------| 
B|-----------------------------------------------------| 
G|---------------------7b9r7--4--7/9-------------------| 
D|------5--7/9--5h7~-----------------7h9~--------------| 
A|-5/7-------------------------------------------------| 
E|-----------------------------------------------------| 

E|-----------------------------------------------------| 
B|------------------------------------7----------------| 
G|-0h2h4--4b5~r4\2--2~-0h2--2~p0------7----------------| 
D|------------------------------------7----------------| 
A|--------------------------------/9-------------------| 
E|-----------------------------------------------------| 

E|-----------------------------------------------------| 
B|-----------------------------------------------------| 
G|-0h2--2/3p2--2~---0--0h2h3--2~-----------------------| 
D|-----------------------------------------------------| 
A|-----------------------------------------------------| 
E|-----------------------------------------------------|  

E|-----------------------------------------------------| 
B|-------------------------------3---------------------| 
G|-------------------------------2---------------------| 
D|-------------------------------0---------------------| 
A|-\5-5h7~--5h7br7p5\3-5/7----3~-----------------------| 
E|-----------------------------------------------------| 

E|-----------------------------------------------------| 
B|-7b8rb8r7p5\3--5/7~----------------10----------------| 
G|------------------------------9-11-------------------| 
D|---------------------------10------------------------| 
A|----------------------9-12---------------------------| 
E|-----------------------------------------------------| 

E|-----------------------------------------------------| 
B|-b11r10--10~p8--8~---8-10-10b11-8h10~\5--5~----------| 
G|-----------------------------------------------------| 
D|-----------------------------------------------------| 
A|-----------------------------------------------------| 
E|-----------------------------------------------------| 

E|-----------------------------------------------------| 
B|-\3--5--6b8r6p5--\1---2/3----------------------------| 
G|-----------------------------------------------------| 
D|-----------------------------------------------------| 
A|-----------------------------------------------------| 
E|-----------------------------------------------------| 


Terceira Parte: 

E|-----------------------------------------------------| 
B|-6~--8~--10~-----6/8~--6-8-10p9-10~------------------| 
G|---------------5-------------------------------------| 
D|-----------------------------------------------------| 
A|-----------------------------------------------------| 
E|-----------------------------------------------------| 

E|-----------------------------------------------------| 
B|-10b11--b11r10~--10p8--8~---7b8rb8r7p5\3-5/7~--3--3--| 
G|-----------------------------------------------2--2--| 
D|-----------------------------------------------0--0--| 
A|-----------------------------------------------------| 
E|-----------------------------------------------------| 

E|-13~--13h15~--15b17rb17r------13h15~--13-15-17p16-17~| 
B|---------------------------13------------------------| 
G|-----------------------------------------------------| 
D|-----------------------------------------------------| 
A|-----------------------------------------------------| 
E|-----------------------------------------------------| 

E|-17b18--b18r17--17~\--15~---13b--10------------------| 
B|------------------------------------10-13------------| 
G|------------------------------------------12b14------| 
D|-----------------------------------------------------| 
A|-----------------------------------------------------| 
E|-----------------------------------------------------| 

E|-----------------------------------------------------| 
B|-10----13-----------------10-------------------------| 
G|----10----12b14--12-10-12----10b---------------------| 
D|-----------------------------------------------------| 
A|-----------------------------------------------------| 
E|-----------------------------------------------------| 

E|-13~--13h15~--15/17-17~------------------------------| 
B|----------------------------6/8~--6-8-10p9-10~-------| 
G|--------------------------5--------------------------| 
D|-----------------------------------------------------| 
A|-----------------------------------------------------| 
E|-----------------------------------------------------| 

E|----------15-17-18-17b18r17-17~\15--15~--------------| 
B|-15-17-18--------------------------------------------| 
G|-----------------------------------------------------| 
D|-----------------------------------------------------| 
A|-----------------------------------------------------| 
E|-----------------------------------------------------| 

                                 H.N 
E|-0-3-b4r3b4r--0--------------------------------------| 
B|------------------0-------2----12--------------------| 
G|----------------------1---2----12--------------------| 
D|--------------------------2----12--------------------| 
A|--------------------------0--------------------------| 
E|-----------------------------------------------------| 

E|-12----12----12----12--------------------------------| 
B|-15b17-15b17-15b17-15b17\----------------------------| 
G|-----------------------------------------------------| 
D|-----------------------------------------------------| 
A|-----------------------------------------------------| 
E|-----------------------------------------------------| 


Final: 

E|-----------------------------------------------------| 
B|-----------------------------------------------------| 
G|-2b4rb4rb4r--2b4r2p0--2b4--0h2~---0------------------| 
D|--------------------------------2--------------------| 
A|-----------------------------------------------------| 
E|-----------------------------------------------------| 

E|-----------------------------------------------------| 
B|-------------------------------3---------------------| 
G|-2b4r2p0-2~--2b4r2p0-2~---2/4----4\2p0---------------| 
D|---------------------------------------2-------------| 
A|-----------------------------------------------------| 
E|-----------------------------------------------------| 

E|-----------------------------------------------------| 
B|-----------------------------------8p0--7p0-7h8p7----| 
G|-------------------------7p0--9p0-----------------9~-| 
D|----------5p0--7p0--7/9------------------------------| 
A|------/7---------------------------------------------| 
E|-0---------------------------------------------------| 

E|------------------10-10------------------------------| 
B|-10b12r10p8-10/12-10-10h12~--------------------------| 
G|-----------------------------------------------------| 
D|-----------------------------------------------------| 
A|-----------------------------------------------------| 
E|-----------------------------------------------------| 

E|--------12----15b17--15-12----------------12---------| 
B|-15b17-----12--------------12-15-------12----15------| 
G|---------------------------------14b16---------------| 
D|-----------------------------------------------------| 
A|-----------------------------------------------------| 
E|-----------------------------------------------------| 

E|-----------------------------------------------------| 
B|----------------12-----------------------------------| 
G|-14b16-14-12-14----12~-------------------------------| 
D|-----------------------------------------------------| 
A|-----------------------------------------------------| 
E|-----------------------------------------------------| 

E|--------12----15b-12----------------12-------------12| 
B|-15b17-----12--------12-15-------12----15-------12---| 
G|---------------------------14b16----------14b16------| 
D|-----------------------------------------------------| 
A|-----------------------------------------------------| 
E|-----------------------------------------------------| 

E|-14/17b19--17--15------------------------------------| 
B|------------------17~~-------------------------------| 
G|-----------------------------------------------------| 
D|-----------------------------------------------------| 
A|-----------------------------------------------------| 
E|-----------------------------------------------------| 

E|--0...--0...--0---0...-------------------------------| 
B|-/5...--7...--7h8-8...--12----12----12----10---------| 
G|------------------------14b16-14b16-14b16-12b14~-----| 
D|-----------------------------------------------------| 
A|-----------------------------------------------------| 
E|-----------------------------------------------------| 

                  H.N 
E|-----------------------------------------------------| 
B|----------------12-----------------------------------| 
G|----------------12-----------------------------------| 
D|-14p0-11p0-14p0-12-----------------------------------| 
A|-----------------------------------------------------| 
E|-----------------------------------------------------| 

E|-----------------------------------------------------| 
B|-----------------------------------------------------| 
G|-14b16-12-14b16-12h14~------14/15\14p12--------------| 
D|-------------------------14-------------14p12--------| 
A|-----------------------------------------------------| 
E|-----------------------------------------------------| 

E|-----------------------------------------------------| 
B|-----------------------------17----17~---------------| 
G|-----------------------------------------------------| 
D|----------------14----14--14----14-------------------| 
A|-12/13\12p10-----------------------------------------| 
E|-------------12----12--------------------------------| 

E|-----------------------------------------------------| 
B|---------------12b----------------------------12~----| 
G|---------------12b----------------------------12~----| 
D|-----12p0-14p0------14----11p0-14p0-11p0-14p0--------| 
A|-/14-------------------14----------------------------| 
E|-----------------------------------------------------| 

E|-----------------------------------------------------| 
B|-12b-----------12b-----------12~---------------------| 
G|-12b-----------12b-----------12~---------------------| 
D|-----11p0-14p0-----11p0-14p0-------------------------| 
A|-----------------------------------------------------| 
E|-----------------------------------------------------| 

E|-----------------------------------------------------| 
B|-12b-------------------------------------------------| 
G|-12b-------------------------------------------------| 
D|------14p12------------------------------------------| 
A|------------14\12p10-12/14-10~-----------------------| 
E|-----------------------------------------------------| 

E|-----------------------------------------------------| 
B|-----------------------------------------------------| 
G|--------------------9-9----9--9----9-9----9-9----9-9-| 
D|--------------------9-9----9--9----9-9----9-9----9-9-| 
A|----------------/11-----11------11-----11-----11-----| 
E|-12p0-10p0-12p0--------------------------------------| 

E|-12p0------------------------------------------------| 
B|------10p0-12p0-8p0-----8p0--------------------------| 
G|--------------------9p0------------------------------| 
D|-----------------------------------------------------| 
A|-----------------------------------------------------| 
E|-----------------------------------------------------| 

E|-12p0------------------------------------------------| 
B|------10p0-12p0-8p0-----8p0--------------------------| 
G|--------------------9p0------------------------------| 
D|-----------------------------------------------------| 
A|-----------------------------------------------------| 
E|-----------------------------------------------------| 

E|-12p0------------------------------------------------| 
B|------10p0-12p0-8p0-----8p0--------------------------| 
G|--------------------9p0------------------------------| 
D|-----------------------------------------------------| 
A|-----------------------------------------------------| 
E|-----------------------------------------------------| 

E|-12p0------------------------------------------------| 
B|------10p0-12p0-8p0-----8p0--------------------------| 
G|--------------------9p0------------------------------| 
D|-----------------------------------------------------| 
A|-----------------------------------------------------| 
E|-----------------------------------------------------| 

E|-12p0------------------------------------------------| 
B|------10p0-12p0-8p0-----8p0--------------------------| 
G|--------------------9p0------------------------------| 
D|-----------------------------------------------------| 
A|-----------------------------------------------------| 
E|-----------------------------------------------------| 

E|-12p0------------------------------------------------| 
B|------10p0-12p0-8p0----------------------------------| 
G|--------------------9p0-7p0-------9-9----9--9-----9-9| 
D|----------------------------------9-9----9--9-----9-9| 
A|----------------------------9/11------11------11-----| 
E|-----------------------------------------------------| 

E|-----------------------------------------------------| 
B|-----------------------------------------------------| 
G|----9-9----9-9---------------------------------------| 
D|----9-9----9-9---------------------------------------| 
A|-11-----11-------------------------------------------| 
E|-----------------------------------------------------| 

E|-12p0------------------------------------------------| 
B|------10p0-12p0-8p0-----8p0--------------------------| 
G|--------------------9p0------------------------------| 
D|-----------------------------------------------------| 
A|-----------------------------------------------------| 
E|-----------------------------------------------------| 

E|-12p0------------------------------------------------| 
B|------10p0-12p0-8p0-----8p0--------------------------| 
G|--------------------9p0------------------------------| 
D|-----------------------------------------------------| 
A|-----------------------------------------------------| 
E|-----------------------------------------------------| 

E|-12p0------------------------------------------------| 
B|------10p0-12p0-8p0-----8p0--------------------------| 
G|--------------------9p0------------------------------| 
D|-----------------------------------------------------| 
A|-----------------------------------------------------| 
E|-----------------------------------------------------| 

E|-12p0------------------------------------------------| 
B|------10p0-12p0-8p0----------------------------------| 
G|--------------------9p0-7p0--------------------------| 
D|-----------------------------------------------------| 
A|-----------------------------------------------------| 
E|-----------------------------------------------------| 

E|-12p0------------------------------------------------| 
B|------10p0-12p0-8p0-----8p0--------------------------| 
G|--------------------9p0------------------------------| 
D|-----------------------------------------------------| 
A|-----------------------------------------------------| 
E|-----------------------------------------------------| 

E|-12p0------------------------------------------------| 
B|------10p0-12p0-8p0----------------------------------| 
G|--------------------9p0-7p0-7h9~-9~-9~-9~------------| 
D|-----------------------------------------------------| 
A|-----------------------------------------------------| 
E|-----------------------------------------------------| 

E|--------------12----------------12-------------------| 
B|-15b17--b17~-----12-15b17rb17------12-15b19r---------| 
G|-----------------------------------------------------| 
D|-----------------------------------------------------| 
A|-----------------------------------------------------| 
E|-----------------------------------------------------| 

E|-12--------------------------------------------------| 
B|----12-----------------------------------------------| 
G|-------14/15\14p12-14~-------------------------------| 
D|-----------------------------------------------------| 
A|-----------------------------------------------------| 
E|-----------------------------------------------------| 

E|-----------------------------------------------------| 
B|-----------------------------------------------------| 
G|-------12-14b16-14-12----14/15-14-12-----------------| 
D|-12/14----------------14-------------14-12-----------| 
A|-------------------------------------------14\12p10--| 
E|-----------------------------------------------------| 

E|-----------------------------------------------------| 
B|-----------------------------------------------------| 
G|-------------------------------------12b-------------| 
D|---------------------------12p0-14p0------14-12------| 
A|-12~-------10p0-12p0-12/14---------------------------| 
E|-------/12-------------------------------------------| 

E|-----------------------------------------------------| 
B|-----------------------------------------------------| 
G|-----------------------------------------------------| 
D|-----------------------------------------------------| 
A|-14\12p10--12/14--10b--------------------------------| 
E|-----------------------------------------------------| 
  

top 5 | ricky furlani
top rock'n roll
Outras músicas do artista letras do(a) Ricky Furlani
1.
Gnk
Top cifras »Top artistas »
Petaxxon Comunicação Online
Cifras.com.br - Melhor e mais completo site de cifras e tablaturas do Brasil
Mais de 1 milhão de acordes de músicas cadastradas desde 2003
As informações contidas no nosso site são colaborações de seus usuários e podem conter erros, sendo assim, não nos responsabilizamos sobre nenhuma destas.
close
menos
mais
close
Cor dos acordes:

Cor da letra:

 

save
close
close
 
redimensionar