Cifras e Tablaturas
Ricky Furlani

Ricky Furlani

Talking

Cifras Cancelar Versão de Impressão
cifras

Ricky Furlani - Talking

fixar na tela  
Exibindo: vídeo-aula ver clipes redimensionar

Tom:

A

ver outros tons
  
Parte A 

Parte 1 de 6 
E|-------5---------------------------------------------| 
B|-----5------7b8r7--5--x-3h5~-------------------------| 
G|---7-------------------------------------------------| 
D|-0---------------------------------------------------| 
A|-----------------------------------------------------| 
E|-----------------------------------------------------| 

Parte 2 de 6 
E|-------5---------------------------------------------| 
B|-------5----7b8r7--5--x-x-3~-------------------------| 
G|-----7-----------------------------------------------| 
D|-0---------------------------------------------------| 
A|-----------------------------------------------------| 
E|-----------------------------------------------------| 

Parte 3 de 6 
E|------------------------------------------5----------| 
B|--------5---------------------5-------------5--------| 
G|------7---------6--7/9--9~p7--7--7-7----------7------| 
D|----7-------/9----------------7---------0------------| 
A|-----------------------------------------------------| 
E|-/7--------------------------------------------------| 

Parte 4 de 6 
E|-------5---------------------------------------------| 
B|-----5------7b8r7--5--x-x-3h5~-----------------------| 
G|---7-------------------------------------------------| 
D|-0---------------------------------------------------| 
A|-----------------------------------------------------| 
E|-----------------------------------------------------| 

Parte 5 de 6 
E|-------5---------------------------------------------| 
B|-------5---------------------------------------------| 
G|-----7------6b7r6--4~--\2--4--4/6--2h4~--------------| 
D|-0---------------------------------------------------| 
A|-----------------------------------------------------| 
E|-----------------------------------------------------| 

Parte 6 de 6 
E|-----------------------------------------------------| 
B|-----------------------------------------------------| 
G|-----6--7/9--9~p7--7/9\7-7~--------------------------| 
D|-/9--------------------------------------------------| 
A|-----------------------------------------------------| 
E|-----------------------------------------------------| 


Parte B 

Parte 1 de 5 
E|-----------------------------------------------------| 
B|-------------------------5--b6r5--3--3~--------------| 
G|-7b9r7p5--5~----------4------------------------------| 
D|------------------/6---------------------------------| 
A|---------------0-------------------------------------| 
E|-----------------------------------------------------| 

Parte 2 de 5 
E|-----------------------------------------------------| 
B|-----------------------------------------------------| 
G|-2h4-4/5-4b5~---\2-2h4-4/5-5-------------------------| 
D|-----------------------------------------------------| 
A|-----------------------------------------------------| 
E|-----------------------------------------------------| 

Parte 3 de 5 
E|---------7---8---10---10b12r10p8--8~-----------------| 
B|----10-----------------------------------------------| 
G|-/9----9---9---9----9--------------------------------| 
D|-----------------------------------------------------| 
A|-----------------------------------------------------| 
E|-----------------------------------------------------| 

Parte 4 de 5 
E|----7--12--b13r12--10--10~---10b12rb12r10p8--8~------| 
B|-9---------------------------------------------------| 
G|-----------------------------------------------------| 
D|-----------------------------------------------------| 
A|-----------------------------------------------------| 
E|-----------------------------------------------------| 

Parte 5 de 5 
E|-8b10r8--7~------------------------------------------| 
B|--------------8p5-8b10r8~----------------------------| 
G|-----------------------------------------------------| 
D|-----------------------------------------------------| 
A|-----------------------------------------------------| 
E|-----------------------------------------------------| 


Parte A - Sol maior 

E|-----------------------------------------------------| 
B|-12b13r12--10--x-8h10~-------------------------------| 
G|-----------------------------------------------------| 
D|-----------------------------------------------------| 
A|-----------------------------------------------------| 
E|-----------------------------------------------------| 

E|-----------------------------------------------------| 
B|-12b13r12--10--x-x-8~--------------------------------| 
G|-----------------------------------------------------| 
D|-----------------------------------------------------| 
A|-----------------------------------------------------| 
E|-----------------------------------------------------| 

E|-----------------------------------------------------| 
B|-12b13r12--10--x-8h10-10p8-8h10p8--8~----------------| 
G|-----------------------------------------------------| 
D|-----------------------------------------------------| 
A|-----------------------------------------------------| 
E|-----------------------------------------------------| 

E|-----------------------------------------------------| 
B|-8-8h10--10/12--\10p8-8~-----------------------------| 
G|-----------------------------------------------------| 
D|-----------------------------------------------------| 
A|-----------------------------------------------------| 
E|-----------------------------------------------------| 

E|-----------------------------------------------------| 
B|-12b13r12--10--x-8h10~-------------------------------| 
G|-----------------------------------------------------| 
D|-----------------------------------------------------| 
A|-----------------------------------------------------| 
E|-----------------------------------------------------| 

E|-----------------------------------------------------| 
B|-12b13r12--10------8~--------------------------------| 
G|-----------------------------------------------------| 
D|-----------------------------------------------------| 
A|-----------------------------------------------------| 
E|-----------------------------------------------------| 

E|----------------------------------------15/17--17~---| 
B|-12b13r12--10--x-x-8h10-10p8-8h10--8~----------------| 
G|-----------------------------------------------------| 
D|-----------------------------------------------------| 
A|-----------------------------------------------------| 
E|-----------------------------------------------------| 

E|-19b20r19--17--x-15h17~------------------------------| 
B|-----------------------------------------------------| 
G|-----------------------------------------------------| 
D|-----------------------------------------------------| 
A|-----------------------------------------------------| 
E|-----------------------------------------------------| 

E|-19b20r19--17----14b15~------------------------------| 
B|-----------------------------------------------------| 
G|-----------------------------------------------------| 
D|-----------------------------------------------------| 
A|-----------------------------------------------------| 
E|-----------------------------------------------------| 

E|-----------------------------------------------------| 
B|-----------------------------------------12----------| 
G|------11--12h14-14~p12--12h14--12~---14-----12~------| 
D|-/14-------------------------------------------------| 
A|-----------------------------------------------------| 
E|-----------------------------------------------------| 


Parte B - Ré menor 

Parte 1 de 8 
E|-----------------------------------------------------| 
B|----------------------------------10--b11r10--\8--8~-| 
G|-12b14rb14r12p10--10~----------9---------------------| 
D|------------------------0--11------------------------| 
A|-----------------------------------------------------| 
E|-----------------------------------------------------| 

Parte 2 de 8 
E|-----------------------------------------------------| 
B|-----------------------------------------------------| 
G|-\7h9--9/10--9b10r----\7-7h9--9/10--10---------------| 
D|-----------------------------------------------------| 
A|-----------------------------------------------------| 
E|-----------------------------------------------------| 

Parte 3 de 8 
E|-----------12----13----15----15b17r15p13--13~--------| 
B|-----15----------------------------------------------| 
G|-/14----14----14----14----14-------------------------| 
D|-----------------------------------------------------| 
A|-----------------------------------------------------| 
E|-----------------------------------------------------| 

Parte 4 de 8 
E|-----12--17--b18r17--15-15~---12b13r12b13r12--10-----| 
B|-14----------------------------------------------10--| 
G|-----------------------------------------------------| 
D|-----------------------------------------------------| 
A|-----------------------------------------------------| 
E|-----------------------------------------------------| 

Parte 5 de 8 
E|--------10-----------10------------------------------| 
B|-13b15-----10-13b15-----13b15r-----------------------| 
G|-----------------------------------------------------| 
D|-----------------------------------------------------| 
A|-----------------------------------------------------| 
E|-----------------------------------------------------| 

Parte 6 de 8 
E|-10--------------------------------------------------| 
B|----10-11b13r11p10----10h11p10-----------------------| 
G|-------------------12----------12/14~----------------| 
D|-----------------------------------------------------| 
A|-----------------------------------------------------| 
E|-----------------------------------------------------| 

Parte 7 de 8 
E|-----------------------------------------------------| 
B|-----------------------------------10--b11r10--8-8~--| 
G|-12b14rb14r12p10--10~-----------9--------------------| 
D|------------------------0--/11-----------------------| 
A|-----------------------------------------------------| 
E|-----------------------------------------------------| 

Parte 8 de 8 
E|-15b17r15--13-13~---13b15r13--12~--------------------| 
B|------------------------------------13p10--13b15r13~-| 
G|-----------------------------------------------------| 
D|-----------------------------------------------------| 
A|-----------------------------------------------------| 
E|-----------------------------------------------------| 
  

top 5 | ricky furlani
top rock'n roll
Outras músicas do artista letras do(a) Ricky Furlani
1.
Gnk
Top cifras »Top artistas »
Petaxxon Comunicação Online
Cifras.com.br - Melhor e mais completo site de cifras e tablaturas do Brasil
Mais de 1 milhão de acordes de músicas cadastradas desde 2003
As informações contidas no nosso site são colaborações de seus usuários e podem conter erros, sendo assim, não nos responsabilizamos sobre nenhuma destas.
close
menos
mais
close
Cor dos acordes:

Cor da letra:

 

save
close
close
 
redimensionar