Cifras e Tablaturas
Riku Rajamaa

Riku Rajamaa

Here I Am

Cifras Cancelar Versão de Impressão
cifras

Riku Rajamaa - Here I Am

fixar na tela  
Exibindo: vídeo-aula ver clipes redimensionar

Tom:

  
 
Capo 5 

e|----------5---------|--------5---------| 
B|-------9-----9------|------9---9-------| 
G|-----9---------9----|----9-------9-----| 
D|--------------------|------------------| 
A|--9-----------------|------------------| 
E|--------------------|--5---------------| 

e|--------5-----------|--------5---------| 
B|-----9-----9--------|------9---9-------| 
G|---9---------9------|----7-------7-----| 
D|--------------------|------------------| 
A|--------------------|------------------| 
E|-7------------------|--7---------------|  
  

top 5 | riku rajamaa
top rock'n roll
Outras músicas do artista letras do(a) Riku Rajamaa
Top cifras »Top artistas »
Petaxxon Comunicação Online
Cifras.com.br - Melhor e mais completo site de cifras e tablaturas do Brasil
Mais de 1 milhão de acordes de músicas cadastradas desde 2003
As informações contidas no nosso site são colaborações de seus usuários e podem conter erros, sendo assim, não nos responsabilizamos sobre nenhuma destas.
close
menos
mais
close
Cor dos acordes:

Cor da letra:

 

save
close
close
 
redimensionar