Cifras e Tablaturas
rocksteddy

rocksteddy

Uwi Ka Na Di Na Ko Galit

Cifras Cancelar Versão de Impressão
cifras

rocksteddy - Uwi Ka Na Di Na Ko Galit

fixar na tela  
Exibindo: vídeo-aula ver clipes redimensionar

Tom:

  
Intro 
e|--------------------------------------------------------------------2-------| 
B|---------8--7---------------8--7------------------8-7--------5-5-5--3-------| 
G|---5/7---------7--5--7--5/7------7-5/7p7/9h7--5/7-----7-5-7--6-6-6--2-------| 
D|-------------------------------------------------------------6-6-6----------| 
A|----------------------------------------------------------------------------| 
E|----------------------------------------------------------------------------| 

Pre-Chorus 
e|------------------------------------------------------------------------| 
B|------------------------------------------------------------------------| 
G|------------------------------------------------------------------------| 
D|--------------4-5--7p 7/------------------------------------------------| 
A|--5-----4-5-7-----------------------------------------------------------| 
E|----5-7-----------------------------------------------------------------| 

Solo 
e|------------------------------------------------------------------------| 
B|-----5-6-6/7--6--5------------------5-6-5-------------------------------| 
G|-5-7---------------7-5h7h5------4h5-------7-5-5-------------------------| 
D|----------------------------5-7-----------------------------------------| 
A|------------------------------------------------------------------------| 
E|------------------------------------------------------------------------| 

e|--------------------7--7---8-8---7---7----10-10--10--8-7---7h87---------| 
B|----------5/-6/-8----8---8-----8---8---8-----------------8------8-------| 
G|------5h7---------------------------------------------------------------| 
D|--5h7-------------------------------------------------------------------| 
A|------------------------------------------------------------------------| 
E|------------------------------------------------------------------------| 

e|--------------------------------------------------------------------------------------| 
B|-10-8-7-7h8-8-8-10-10-8-7h8-8-8-10-10-12-12--8-7h8-8-8-8-10-10--8-7h8-8-8-10-10-12-12-| 
G|--------------------------------------------------------------------------------------| 
D|--------------------------------------------------------------------------------------| 
A|--------------------------------------------------------------------------------------| 
E|--------------------------------------------------------------------------------------| 

e|-----10-------------------------------------------------------------------| 
B|--------12----------------------------------------------------------------| 
G|--12----------------------------------------------------------------------| 
D|--------------------------------------------------------------------------| 
A|--------------------------------------------------------------------------| 
E|--------------------------------------------------------------------------| 

 Outro (x5) 
e|------------------------------------------------------------------------| 
B|--8-8-8-7---------------------------------------------------------------| 
G|----------9-7h9h7-------------------------------------------------------| 
D|------------------9-7h9h7-5---------------------------------------------| 
A|------------------------------------------------------------------------| 
E|------------------------------------------------------------------------| 



************************************ 

| h  Hammer-on 
| p  Pull-off 
| /  Slide up 
  

************************************ 
  

top 5 | rocksteddy
top rock'n roll
Outras músicas do artista letras do(a) rocksteddy
Top cifras »Top artistas »
Petaxxon Comunicação Online
Cifras.com.br - Melhor e mais completo site de cifras e tablaturas do Brasil
Mais de 1 milhão de acordes de músicas cadastradas desde 2003
As informações contidas no nosso site são colaborações de seus usuários e podem conter erros, sendo assim, não nos responsabilizamos sobre nenhuma destas.
close
menos
mais
close
Cor dos acordes:

Cor da letra:

 

save
close
close
 
redimensionar