Cifras e Tablaturas
Ron Block

Ron Block

Faraway Land

Cifras Cancelar Versão de Impressão
cifras

Ron Block - Faraway Land

fixar na tela  
Exibindo: vídeo-aula ver clipes redimensionar

Tom:

  
 
Capo 3 

e|--------------------------------------------------------------------| 
B|--------------------------------------------------------------------| 
G|--4--2--0----------2--4--2-----------------0------------------------| 
D|-----------4--0-------------4------4~5--4---------------------------| 
A|-------------------------------3------------------------------------| 
E|--------------------------------------------------------------------| 

e|--------------------------------------------------------------------| 
B|--------------------------------------------------------------------| 
G|--4--2--0----------2--4--2------------------------------------------| 
D|-----------4--0-------------4-------0`2--0--------------------------| 
A|-------------------------------3------------0--0`2------------------| 
E|--------------------------------------------------------------------| 

e|--------------------------------------------------------------------| 
B|--------------------------------------1`0---------------------------| 
G|--4--2--0----------2--4--2-----------------2--0---2~4---------------| 
D|-----------4--0-------------4---------------------------------------| 
A|-------------------------------3------------------------------------| 
E|--------------------------------------------------------------------| 

e|--------------------------------------------------------------------| 
B|--------------------------------------------------------------------| 
G|--4--2--0-----------2--4--2-----------------------------------------| 
D|-----------4--0--------------4--------------------------------------| 
A|--------------------------------3-----------------------------------| 
E|--------------------------------------------------------------------| 
  

top 5 | ron block
top rock'n roll
Outras músicas do artista letras do(a) Ron Block
Top cifras »Top artistas »
Petaxxon Comunicação Online
Cifras.com.br - Melhor e mais completo site de cifras e tablaturas do Brasil
Mais de 1 milhão de acordes de músicas cadastradas desde 2003
As informações contidas no nosso site são colaborações de seus usuários e podem conter erros, sendo assim, não nos responsabilizamos sobre nenhuma destas.
close
menos
mais
close
Cor dos acordes:

Cor da letra:

 

save
close
close
 
redimensionar