Cifras e Tablaturas
Royal Blood

Royal Blood

My Sharona

Cifras Cancelar Versão de Impressão
cifras

Royal Blood - My Sharona

fixar na tela  
Exibindo: vídeo-aula ver clipes redimensionar

Tom:

  
Intro 

D|---------------------------------------------------------------------------| 
A|---------------------------------------------------------------------------| 
F|---------------------------------------------------------------------------| 
C|-------4-4---4---4-----4-------4-4---4-------------------------------------| 
G|---------------------------------------------------------------------------| 
D|-1/2-2-----2---2---2-2---1/2-2-----2----7~-5-7-5---------------------------| 

D|---------------------------------------------------------------------------| 
A|---------------------------------------------------------------------------| 
F|---------------------------------------------------------------------------| 
C|-------4-4---4---4-----4-------4-4---4-------------------------------------| 
G|---------------------------------------------------------------------------| 
D|-1/2-2-----2---2---2-2---1/2-2-----2----7~-5-7-5---------------------------| 


Verse 

D|---------------------------------------------------------------------------| 
A|---------------------------------------------------------------------------| 
F|---------------------------------------------------------------------------| 
C|-------4-4---4---4-----4-------4-4---4-------------------------------------| 
G|---------------------------------------------------------------------------| 
D|-1/2-2-----2---2---2-2---1/2-2-----2----7~-5-7-5---------------------------| 

D|---------------------------------------------------------------------------| 
A|---------------------------------------------------------------------------| 
F|---------------------------------------------------------------------------| 
C|-------4-4---4---4-----4-------4-4---4-------------------------------------| 
G|---------------------------------------------------------------------------| 
D|-1/2-2-----2---2---2-2---1/2-2-----2----7~-5-7-5---------------------------| 

D|---------------------------------------------------------------------------| 
A|---------------------------------------------------------------------------| 
F|---------------------------------------------------------------------------| 
C|-------4-4-----4-4-----4-4-----4-4-------7-7-----7-7-----7-7-----7-7-------| 
G|---------------------------------------------------------------------------| 
D|-1/2-2-----2-2-----2-2-----2-2-----2/5-5-----5-5-----5-5-----5-5-----------| 

D|---------------------------------------------------------------------------| 
A|---------------------------------------------------------------------------| 
F|---------------------------------------------------------------------------| 
C|---------------------------------------------------------------------------| 
G|---------------------------------------------------------------------------| 
D|-7-7--10-10--12-10-12\-----------------------------------------------------| 

D|---------------------------------------------------------------------------| 
A|---------------------------------------------------------------------------| 
F|---------------------------------------------------------------------------| 
C|-------4-4---4---4-----4-------4-4---4-------------------------------------| 
G|---------------------------------------------------------------------------| 
D|-1/2-2-----2---2---2-2---1/2-2-----2----7~-5-7-5---------------------------| 


verse 2 

D|---------------------------------------------------------------------------| 
A|---------------------------------------------------------------------------| 
F|---------------------------------------------------------------------------| 
C|-------4-4---4---4-----4-------4-4---4-------------------------------------| 
G|---------------------------------------------------------------------------| 
D|-1/2-2-----2---2---2-2---1/2-2-----2----7~-5-7-5---------------------------| 

D|---------------------------------------------------------------------------| 
A|---------------------------------------------------------------------------| 
F|---------------------------------------------------------------------------| 
C|-------4-4---4---4-----4-------4-4---4-------------------------------------| 
G|---------------------------------------------------------------------------| 
D|-1/2-2-----2---2---2-2---1/2-2-----2----7~-5-7-5---------------------------| 

D|---------------------------------------------------------------------------| 
A|---------------------------------------------------------------------------| 
F|---------------------------------------------------------------------------| 
C|-------4-4-----4-4-----4-4-----4-4-------7-7-----7-7-----7-7-----7-7-------| 
G|---------------------------------------------------------------------------| 
D|-1/2-2-----2-2-----2-2-----2-2-----2/5-5-----5-5-----5-5-----5-5-----------| 

D|---------------------------------------------------------------------------| 
A|---------------------------------------------------------------------------| 
F|---------------------------------------------------------------------------| 
C|---------------------------------------------------------------------------| 
G|---------------------------------------------------------------------------| 
D|-7-7--10-10--12-10-12\-----------------------------------------------------| 

D|---------------------------------------------------------------------------| 
A|---------------------------------------------------------------------------| 
F|---------------------------------------------------------------------------| 
C|-------4-4---4---4-----4-------4-4---4---4---------------------------------| 
G|---------------------------------------------------------------------------| 
D|-1/2-2-----2---2---2-2---1/2-2-----2---2---/\--7-7--10-10--12-10-12\-------| 


Bridge 

D|---------------------------------------------------------------------------| 
A|---------------------------------------------------------------------------| 
F|---------------------------------------------------------------------------| 
C|---------------------------------------------------------------------------| 
G|---------------------------------------------------------------------------| 
D|-2-2-0-2-2-0-2-2-0-2-0--/7-7--10-10--12-10-12\-----------------------------| 

D|---------------------------------------------------------------------------| 
A|---------------------------------------------------------------------------| 
F|---------------------------------------------------------------------------| 
C|---------------------------------------------------------------------------| 
G|---------------------------------------------------------------------------| 
D|-2-2-0-2-2-0-2-2-0-2-0--/7-7--10-10--12-10-12\-----------------------------| 

D|---------------------------------------------------------------------------| 
A|---------------------------------------------------------------------------| 
F|---------------------------------------------------------------------------| 
C|---------------------------------------------------------------------------| 
G|---------------------------------------------------------------------------| 
D|-2-2-0-2-2-0-2-2-0-2-0--/7-7--10-10--12-10-12\-----------------------------| 

D|---------------------------------------------------------------------------| 
A|---------------------------------------------------------------------------| 
F|---------------------------------------------------------------------------| 
C|---------------------------------------------------------------------------| 
G|-4-4-4-4-4-4-4-4-4-4-4-4-4-------------------------------------------------| 
D|---------------------------------------------------------------------------| 

Intro 

D|---------------------------------------------------------------------------| 
A|---------------------------------------------------------------------------| 
F|---------------------------------------------------------------------------| 
C|-------4-4---4---4-----4-------4-4---4---4-----4---------------------------| 
G|---------------------------------------------------------------------------| 
D|-0-2-2-----2---2---2-2---1/2-2-----2---2---2-2-----------------------------| 

verse 3 

D|---------------------------------------------------------------------------| 
A|---------------------------------------------------------------------------| 
F|---------------------------------------------------------------------------| 
C|-------4-4---4---4-----4-------4-4---4-------------------------------------| 
G|---------------------------------------------------------------------------| 
D|-1/2-2-----2---2---2-2---1/2-2-----2----7~-5-7-5---------------------------| 

D|---------------------------------------------------------------------------| 
A|---------------------------------------------------------------------------| 
F|---------------------------------------------------------------------------| 
C|-------4-4---4---4-----4-------4-4---4-------------------------------------| 
G|---------------------------------------------------------------------------| 
D|-1/2-2-----2---2---2-2---1/2-2-----2----7~-5-7-5---------------------------| 

D|---------------------------------------------------------------------------| 
A|---------------------------------------------------------------------------| 
F|---------------------------------------------------------------------------| 
C|-------4-4-----4-4-----4-4-----4-4-------7-7-----7-7-----7-7-----7-7-------| 
G|---------------------------------------------------------------------------| 
D|-1/2-2-----2-2-----2-2-----2-2-----2/5-5-----5-5-----5-5-----5-5-----------| 

D|---------------------------------------------------------------------------| 
A|---------------------------------------------------------------------------| 
F|---------------------------------------------------------------------------| 
C|---------------------------------------------------------------------------| 
G|---------------------------------------------------------------------------| 
D|-7-7--10-10--12-10-12\-----------------------------------------------------| 

D|---------------------------------------------------------------------------| 
A|---------------------------------------------------------------------------| 
F|---------------------------------------------------------------------------| 
C|-------4-4---4---4-----4---------------------------------------------------| 
G|---------------------------------------------------------------------------| 
D|-1/2-2-----2---2---2-2----7-7--10-10--12-10-12\----------------------------| 

Outro 

D|---------------------------------------------------------------------------| 
A|---------------------------------------------------------------------------| 
F|---------------------------------------------------------------------------| 
C|-------4-4---4---4-----4-------4-4---4---4-----4---------------------------| 
G|---------------------------------------------------------------------------| 
D|-1/2-2-----2---2---2-2---1/2-2-----2---2---2-2-----------------------------| 

D|---------------------------------------------------------------------------| 
A|---------------------------------------------------------------------------| 
F|---------------------------------------------------------------------------| 
C|-------4-4---4---4-----4-------4-4---4-------------------------------------| 
G|---------------------------------------------------------------------------| 
D|-1/2-2-----2---2---2-2---1/2-2-----2----7~-5-7-5---------------------------| 

Boom! 

D|---------------------------------------------------------------------------| 
A|---------------------------------------------------------------------------| 
F|---------------------------------------------------------------------------| 
C|-------4-4-----4-4-----4-4-----4-------------------------------------------| 
G|---------------------------------------------------------------------------| 
D|---2-2-----2-2-----2-2-----2-2----\----------------------------------------| 


************************************ 


| /   Slide up 
| \   Slide down 
| ~   Vibrato 


************************************ 
  

top 5 | royal blood
top rock'n roll
Outras músicas do artista letras do(a) Royal Blood
Top cifras »Top artistas »
Petaxxon Comunicação Online
Cifras.com.br - Melhor e mais completo site de cifras e tablaturas do Brasil
Mais de 1 milhão de acordes de músicas cadastradas desde 2003
As informações contidas no nosso site são colaborações de seus usuários e podem conter erros, sendo assim, não nos responsabilizamos sobre nenhuma destas.
close
menos
mais
close
Cor dos acordes:

Cor da letra:

 

save
close
close
 
redimensionar