Cifras e Tablaturas
Rupert Hine

Rupert Hine

Arrested By You

Cifras Cancelar Versão de Impressão
cifras

Rupert Hine - Arrested By You

fixar na tela  
Exibindo: vídeo-aula ver clipes redimensionar
  Intro 

e|----0-2-----0-2-----0-2-----0-2-|-----0-2-----0-2-----0-2-----0-2------------| 
B|--3-------3-------3-------3-----|---3-------3-------3-------3----------------| 
G|--------------------------------|--------------------------------------------| 
D|0-------0-------0-------0-------|--------------------------------------------| 
A|--------------------------------|-2-------2-------2-------2------------------| 
E|--------------------------------|--------------------------------------------| 
                  *+++++++++++++++*  
e|----0-2-----0-2-----0-3----2----0------------------------------------------| 
B|--3-------3-------3--------------------------------------------------------| 
G|---------------------------------------------------------------------------| 
D|---------------------------------------------------------------------------| 
A|---------------------------------------------------------------------------| 
E|0-------0-------0-----0----0----0------------------------------------------| 


verse 1 

  D                                      Bm 
e|2--------------------------------------------------------------------------| 
B|3--------------------------------------3-----------------------------------| 
G|2--------------------------------------4-----------------------------------| 
D|0--------------------------------------4-----------------------------------| 
A|---------------------------------------2-----------------------------------| 
E|---------------------------------------------------------------------------| 
  What is this strange elation taking my train of thought 

                Em                                       G 
e|---------------------------------------------------------------------------| 
B|---------------------------------------------------------------------------| 
G|--------------0-----------0----------------------------0-------------------| 
D|--------------2-----------2-----4-----2----------------0-------------------| 
A|--------------2-----------------2-----2----------------2-------------------| 
E|--------------0-----------------------0----------------3-------------------| 
  To an unknown destination?                I don't know where I am 

             A                             D 
e|-----------------------------------------2------2--0------------------------| 
B|-----------2-----------------------------3------3--3--3--0--3-3--0--3-------| 
G|-----------2-----------------------------2------------2--2--2-2--2--2-------| 
D|-----------2-----------------------------0----------------------------------| 
A|-----------0----------------------------------------------------------------| 
E|----------------------------------------------------------------------------| 
  But like a tremor or a spark Something's happening in my heart 

  G 
e|-----3--2--0--------0-------0----------3-----------------------------------| 
B|--------------0--3-------3-------3-----------------------------------------| 
G|---------------------------------------------------------------------------| 
D|---------------------------------------------------------------------------| 
A|---------------------------------------------------------------------------| 
E|3--------------------------------------------------------------------------| 

Chorusx2 

  D             Em       F#m#5         G    Em 
e|2--------------------------------------------------------------------------| 
B|3--------------------------------------------------------------------------| 
G|2-------------0----------2-----------0-------------------------------------| 
D|0-------------2----------0-----------0----0-h-2----------------------------| 
A|--------------2----------0-----------2----2--------------------------------| 
E|--------------0----------2-----------3----0--------------------------------| 
  I've been a - rrested by you take me in   oh-oh 

  D       Em        F#m#5            G             A       Em 
e|2--------------------------------------------------------------------------| 
B|3--------------------------------------------------------------------------| 
G|2-------0-----------2--------------0-------------2-------------------------| 
D|0-------2-----------0--------------0-------------2----4--2-----------------| 
A|--------2-----------0--------------2-------------0----0--2-----------------| 
E|--------0-----------2--------------3---------------------0-----------------| 
  Finally captured by you     by you by you (win?) Take me in 

verse 2 

  D                                      Bm 
e|2--------------------------------------------------------------------------| 
B|3--------------------------------------3-----------------------------------| 
G|2--------------------------------------4-----------------------------------| 
D|0--------------------------------------4-----------------------------------| 
A|---------------------------------------2-----------------------------------| 
E|---------------------------------------------------------------------------| 
  You've broken my concentration         Saving me just in time from a  

                Em                                                G 
e|---------------------------------------------------------------------------| 
B|---------------------------------------------------------------------------| 
G|--------------0-----------0-------------------------------------0----------| 
D|--------------2-----------2-----4-----2-------------------------0----------| 
A|--------------2-----------------2-----2-------------------------2----------| 
E|--------------0-----------------------0-------------------------3----------| 
  desperate situ-ation            and   suddenly     I don't know who I am 

             A                                 D 
e|---------------------------------------------2------2--0--------------------| 
B|-----------2---------------------------------3------3--3--3--0--3-3--0--3---| 
G|-----------2---------------------------------2------------2--2--2-2--2--2---| 
D|-----------2---------------------------------0------------------------------| 
A|-----------0----------------------------------------------------------------| 
E|----------------------------------------------------------------------------| 
  But my dil-emma's where to start Something's happening in my heart 

  G 
e|-----3--2--0--------0-------0----------3-----------------------------------| 
B|--------------0--3-------3-------3-----------------------------------------| 
G|---------------------------------------------------------------------------| 
D|---------------------------------------------------------------------------| 
A|---------------------------------------------------------------------------| 
E|3--------------------------------------------------------------------------| 

Chorusx4 

  D             Em       F#m#5         G    Em 
e|2--------------------------------------------------------------------------| 
B|3--------------------------------------------------------------------------| 
G|2-------------0----------2-----------0-------------------------------------| 
D|0-------------2----------0-----------0----0-h-2----------------------------| 
A|--------------2----------0-----------2----2--------------------------------| 
E|--------------0----------2-----------3----0--------------------------------| 
  I've been a - rrested by you take me in   oh-oh 

  D       Em        F#m#5            G             A       Em 
e|2--------------------------------------------------------------------------| 
B|3--------------------------------------------------------------------------| 
G|2-------0-----------2--------------0-------------2-------------------------| 
D|0-------2-----------0--------------0-------------2----4--2-----------------| 
A|--------2-----------0--------------2-------------0----0--2-----------------| 
E|--------0-----------2--------------3---------------------0-----------------| 
  Finally captured by you     by you by you (win?) Take me in 

************************************ 
| h   Hammer-on 
|************************************ 
  

cifra enviadasem correções
enviado porenviada por:educastilho
top 5 | rupert hine
top rock'n roll
Outras músicas do artista letras do(a) Rupert Hine
Top cifras »Top artistas »
Petaxxon Comunicação Online
Cifras.com.br - Melhor e mais completo site de cifras e tablaturas do Brasil
Mais de 1 milhão de acordes de músicas cadastradas desde 2003
As informações contidas no nosso site são colaborações de seus usuários e podem conter erros, sendo assim, não nos responsabilizamos sobre nenhuma destas.
close
menos
mais
close
Cor dos acordes:

Cor da letra:

 

save
close
close
 
redimensionar