Cifras e Tablaturas
Salário Mínimo

Salário Mínimo

Doce Vingança

Cifras Cancelar Versão de Impressão Print

Salário Mínimo - Doce Vingança

Tom:

  • 0:00 / 0:00
  			 
|----------------| 
|----------------| 
|---2-4s5-4-5-2--|2x 
|-2--------------| 
|----------------| 
|----------------| 
 
 
|----------------|---------------- 
|---3-1-1-0------|---1-0-1-0-0---- 
|----------------|-2-------------- 
|-2---------2----|---------------- 
|----------------|---------------- 
|----------------|---------------- 
 
 
|----------------| 
|----------------| 
|----------------| 
|-7-10-9-5-------|5x 
|-7-10-9-5-------| 
|-5--8-7-3-------| 
 
|----------------| 
|----------------| 
|----------------| 
|-7-10-9-7-5-----| 
|-7-10-9-7-5-----| 
|-5--8-7-5-3-----| 
 
Verso: |A|G|C|D|2x 
 
Refrão: 
|----------------|----------------|----------------| 
|----------------|----------------|----------------| 
|----------------|----------------|----------------| 
|-7-10-9-5-7-----|--10-9-5-7------|----------------|2x 
|-7-10-9-5-7-----|--10-9-5-7------|10-9-10-12-14---| 
|-5--8-7-3-5-----|---8-7-3-5------|-8-7--8-10-12---| 
 
|----------------|----------------| 
|----------------|----------------| 
|----------------|----------------| 
|-7-10-9--5------|----------------|2x 
|-7-10-9--5------|-5-5-7----------| 
|-5--8-7--3------|-3-3-5----------| 
 
Verso: |A|G|C|D|2x 
 
Refrão: 
|----------------|----------------|----------------| 
|----------------|----------------|----------------| 
|----------------|----------------|----------------| 
|-7-10-9-5-7-----|--10-9-5-7------|----------------|2x 
|-7-10-9-5-7-----|--10-9-5-7------|10-9-10-12-14---| 
|-5--8-7-3-5-----|---8-7-3-5------|-8-7--8-10-12---| 
 
|----------------|----------------| 
|----------------|----------------| 
|----------------|----------------| 
|-7-10-9--5------|----------------|2x 
|-7-10-9--5------|-5-5-7----------| 
|-5--8-7--3------|-3-3-5----------| 
 
|----------------|----------------|----------------| 
|----------------|----------------|----------------| 
|----------------|----------------|----------------| 
|----------------|----------------|----------------|2x 
|----------------|-2-3------------|----------------| 
|-5-7-8-3--------|-----1----------|-3-1-0-1-0-1----| 
 
|A|G|F|Em|6x 
 
|----------------|----------------|----------------| 
|----------------|----------------|----------------| 
|----------------|----------------|----------------| 
|----------------|----------------|----------------|2x 
|----------------|-2-3------------|----------------| 
|-5-7-8-3--------|-----1----------|-3-1-0-1-0-1----| 
 
 
Vai!4x mudo 
|A|G|F|Em| 
|A|G|F|Em| 
 
 
|----------------|----------------|----------------| 
|----------------|----------------|----------------| 
|----------------|----------------|----------------| 
|----------------|----------------|----------------|2x 
|----------------|-2-3------------|----------------| 
|-5-7-8-3--------|-----1----------|-3-1-0-1-0-1----| 
 
Refrão 
|----------------|----------------|----------------| 
|----------------|----------------|----------------| 
|----------------|----------------|----------------| 
|-7-10-9-5-7-----|--10-9-5-7------|----------------|2x 
|-7-10-9-5-7-----|--10-9-5-7------|10-9-10-12-14---| 
|-5--8-7-3-5-----|---8-7-3-5------|-8-7--8-10-12---| 
 
|----------------|----------------|----------------| 
|----------------|----------------|----------------| 
|----------------|----------------|----------------| 
|----------------|----------------|----------------|2x 
|----------------|----------------|----------------| 
|-5--8-7-3-5-----|---8-7-3-5------|-8-7--5-3-------| 
 
|G|G|G|A|A| 

    	

enviado porenviado por: Gabriel Fox
cifra enviadaCorrigida por: sem correções
logo top cifrasComente
ico música do artistaMúsicas deste artista
ico curtiuCurtiu?
ico destaqueDestaque
Petaxxon Comunicação Online

Cifras.com.br - Melhor e mais completo site de cifras e tablaturas do Brasil Mais de 1 milhão de acordes de músicas cadastradas desde 2003
As informações contidas no nosso site são colaborações de seus usuários e podem conter erros, sendo assim, não nos responsabilizamos sobre nenhuma destas.

close
menos
mais
close
Cor dos acordes:

Cor da letra:

close
Alinhar acordes a direita Alinhar acordes a esquerda Alinhar acordes em baixo Alinhar acordes no topo
close
  Mostrar todos os acordes Esconder acordes muito fáceis Esconder acordes fáceis Esconder acordes intermediários
redimensionar
glossário