Cifras e Tablaturas
Scandal

Scandal

Happy Collector

Cifras Cancelar Versão de Impressão
cifras

Scandal - Happy Collector

fixar na tela  
Exibindo: vídeo-aula ver clipes redimensionar
  
Intro 
E|----------------|----------------| 
B|----------------|----------------| 
G|----------------|----------------| 
D|----------------|----------------| 
A|----------------|----------------| 
E|-6-7-7-6-7-7-6-7|-6-7-7-6-7-7-6-7|(2x) 

Mami 
E|-------------|------------|---------------------------------| 
B|-------------|------------|---------------------------------| 
G|-------------|------------|---------------------------------| 
D|-13-13-14-14-|-13-13-14-14|-13-13-14-14-13-11---------------| 
A|-------------|------------|-------------------14-13-13-14-14| 
E|-------------|------------|---------------------------------|(2x) 

Haru 
E|-x-x-x-x-|-x-x-x-x-|-x-x-x-x--------x-x-x-x---| 
B|-x-x-x-x-|-x-x-x-x-|-x-x-x-x--------x-x-x-x---| 
G|-x-x-x-x-|-x-x-x-x-|-x-x-x-x--------x-x-x-x---| 
D|-8-8-9-9-|-8-8-9-9-|-8-8-9-9--------x-x-x-x---| 
A|-6-6-7-7-|-6-6-7-7-|-6-6-7-7-6------8-8-9-9---| 
E|-x-x-x-x-|-x-x-x-x-|-----------9-7--6-6-7-7---|(2x) 


Verse 
Mami 
E|-11---------|------------| 
B|-12---------|------------| 
G|-11--9-9-8-8|------------| 
D|------------|--8-9-9-----| 
A|------------|------------| 
E|------------|------------|(2x) 

Haru 
E|--7----------|-x-x-x--| 
B|--7----------|-x-x-x--| 
G|--8----------|-x-x-x--| 
D|--9--9-9-9-9-|-x-x-x--| 
A|--9--7-7-6-6-|-8-9-9--| 
E|--7----------|-6-7-7--|(2x) 

B5                     E5 D#5 
Yellow purple red red green 
               A#5 B5 
Kattekimama yo onna wa 
B5                     E5 D#5 
Saidaa raidaa baatendaa 
                 A#5 B5 
Aisaretai no atashi wa 

Instrumental 
Mami 
E|-------------|------------|---------------------------------| 
B|-------------|------------|---------------------------------| 
G|-------------|------------|---------------------------------| 
D|-13-13-14-14-|-13-13-14-14|-13-13-14-14-13-11---------------| 
A|-------------|------------|-------------------14-13-13-14-14| 
E|-------------|------------|---------------------------------|(2x) 

Haru 
E|-x-x-x-x-|-x-x-x-x-|-x-x-x-x--------x-x-x-x---| 
B|-x-x-x-x-|-x-x-x-x-|-x-x-x-x--------x-x-x-x---| 
G|-x-x-x-x-|-x-x-x-x-|-x-x-x-x--------x-x-x-x---| 
D|-8-8-9-9-|-8-8-9-9-|-8-8-9-9--------x-x-x-x---| 
A|-6-6-7-7-|-6-6-7-7-|-6-6-7-7-6------8-8-9-9---| 
E|-x-x-x-x-|-x-x-x-x-|-----------9-7--6-6-7-7---|(2x) 

Pre-Chorus 
Mami 
E|------|------------------------------| 
B|-9--7-|-12-11------------------------| 
G|-8--6-|-11-11-11--6-8-----11-9-8-----| 
D|------|-----------6-8-9---------11-9-| 
A|------|-----------7-9-9--------------| 
E|------|---------------7--------------| 

Haru 
E|-x---x-|--11-x---x-x--x------------| 
B|-x---x-|--12-x---x-x--x------------| 
G|-13--11|--11-11--9-11-x-11-9-8-----| 
D|-13--11|--13-11--9-11-9--------11-9| 
A|-11--9-|--11-9---7-9--9------------| 
E|-x---x-|--x--x---x-x--7------------| 

G#5                         F#5 
Totsuzen sora kara futtekuru Jonii Deppu ni sekushii booi 
G#5      F#5      E5    F#5     B5 
Sekai ga owaru mae ni kisu mii puriizu 

Mami 
E|---------------------| 
B|--12--11----14-------| 
G|--11--11-11-13--11---| 
D|-------------------4-| 
A|-------------------4-| 
E|-------------------2-| 

Haru 
E|11-x--x--|---------------| 
B|12-x--x--|---------------| 
G|11-11-x--|-8/9-9-8/9-9---| 
D|13-11-11-|-8/9-9-8/9-9--4| 
A|11-9--11-|-6/7-7-6/7-7--4| 
E|x--x--9--|--------------2| 

G#5      F#5     C#5      (D#5/E5 E5)2x     F#5 
Inochi mijikashi koiseyo otome wanpiisu nabikase 

Chorus 
Mami 
E|----|------------------|-------------------------| 
B|-9--|16-16-17-16-17-16-|-16--16-16--16-16-16-16--| 
G|-9--|16-16-16-16-16-16-|-18--16-16--18-18-16-16--| 
D|-7--|------------------|-------------------------| 
A|----|------------------|-------------------------| 
E|----|------------------|-------------------------| 

Haru 
E|-----------|---------|------------------| 
B|-----------|-5-4-5-4-|------------------| 
G|-9--9-8-6-4|-x-x-x-x-|-8----------------| 
D|-9--9-8-6-4|-4-4-4-4-|-8-6--------------| 
A|-7--7-6-4-2|-2-2-2-2-|-6-6--------6-6---| 
E|-----------|---------|---4--4-7-7-----4-| 

            E5    E5 D#5 C#5 B5   D#5    G#5 
Ha, wa, yu? Happii korekutaa roorin na eburidee 

Mami 
E|-x-|----------------|--------------------------------| 
B|-x-|----------------|(14)-12---(14)-12--(14)-12------| 
G|-x-|----------------|-------13--------13-------13-11-| 
D|-3-|---5------------|--------------------------------| 
A|-4-|-6---------6-6--|--------------------------------| 
E|-x-|-----4-7-7-----4|--------------------------------| 

Haru 
E|----|---------------|-----------| 
B|----|---------------|-----------| 
G|--6-|-8-------------|-6------4--| 
D|--6-|-8-------------|-6---4--4--| 
A|--4-|-6--------6-6--|-4---4--2--| 
E|----|----4-7-7-----4|-----2-----| 

C#5                D#5     G#5 
Fuku kaze marugoto oikoshite 
        C#5 
Soshite supiidoappu! Sheipuappu! Nebagibappu! 
F#5                 B#5 
Taikutsu ni sayonara 

Mami 
E|-11---11---9----9---12---12---11--11| 
B|---12---12---12--12---12---12---12--| 
G|------------------------------------| 
D|------------------------------------| 
A|------------------------------------| 
E|------------------------------------| 

Instrumental 
Mami 
E|-------------|------------|---------------------------------| 
B|-------------|------------|---------------------------------| 
G|-------------|------------|---------------------------------| 
D|-13-13-14-14-|-13-13-14-14|-13-13-14-14-13-11---------------| 
A|-------------|------------|-------------------14-13-13-14-14| 
E|-------------|------------|---------------------------------|(2x) 

Haru 
E|-x-x-x-x-|-x-x-x-x-|-x-x-x-x--------x-x-x-x---| 
B|-x-x-x-x-|-x-x-x-x-|-x-x-x-x--------x-x-x-x---| 
G|-x-x-x-x-|-x-x-x-x-|-x-x-x-x--------x-x-x-x---| 
D|-8-8-9-9-|-8-8-9-9-|-8-8-9-9--------x-x-x-x---| 
A|-6-6-7-7-|-6-6-7-7-|-6-6-7-7-6------8-8-9-9---| 
E|-x-x-x-x-|-x-x-x-x-|-----------9-7--6-6-7-7---|(2x) 

Verse 
Mami 
E|-11---------|------------| 
B|-12---------|------------| 
G|-11--9-9-8-8|------------| 
D|------------|--8-9-9-----| 
A|------------|------------| 
E|------------|------------|(2x) 

Haru 
E|--7----------|-x-x-x--| 
B|--7----------|-x-x-x--| 
G|--8----------|-x-x-x--| 
D|--9--9-9-9-9-|-x-x-x--| 
A|--9--7-7-6-6-|-8-9-9--| 
E|--7----------|-6-7-7--|(2x) 

B5                     E5 D#5 
Ai wana bii yua nanbaa wan 
               A#5 B5 
Kimi ni anata ni sasayaku 
B5                     E5 D#5 
Passhon sesshon guradeeshon 
                 A#5 B5 
Akushidento ni seiharoo 

Pre-Chorus 
Mami 
E|------|------------------------------| 
B|-9--7-|-12-11------------------------| 
G|-8--6-|-11-11-11--6-8-----11-9-8-----| 
D|------|-----------6-8-9---------11-9-| 
A|------|-----------7-9-9--------------| 
E|------|---------------7--------------| 

Haru 
E|-x---x-|--x--x---x-x--x------------| 
B|-x---x-|--x--x---x-x--x------------| 
G|-13--11|--13-11--9-11-x-11-9-8-----| 
D|-13--11|--13-11--9-11-9--------11-9| 
A|-11--9-|--11-9---7-9--9------------| 
E|-x---x-|--x--x---x-x--7------------| 

G#5 
Kagami no naka no purinsesu 
F#5 
Ootokuchuuru shanari shanari 
G#5      F#5      E5    F#5     B5 
Mikaeri bijin ni goyoujin 

Mami 
E|---------------------| 
B|--12--11----14-------| 
G|--11--11-11-13--11-4-| 
D|-------------------4-| 
A|-------------------2-| 
E|---------------------| 

Haru 
E|x--x--x--|---------------| 
B|x--x--x--|---------------| 
G|13-11-x--|-8/9-9-8/9-9---| 
D|13-11-11-|-8/9-9-8/9-9--4| 
A|11-9--11-|-6/7-7-6/7-7--4| 
E|x--x--9--|--------------2| 

G#5      F#5     C#5      (D#5/E5 E5)2x     F#5 
Ashita haretara doko ni yukou Saikou wo sagashite 

Chorus 
Mami 
E|----|------------------|-------------------------| 
B|-9--|16-16-17-16-17-16-|-16--16-16--16-16-16-16--| 
G|-9--|16-16-16-16-16-16-|-18--16-16--18-18-16-16--| 
D|-7--|------------------|-------------------------| 
A|----|------------------|-------------------------| 
E|----|------------------|-------------------------| 

Haru 
E|-----------|---------|------------------| 
B|-----------|-5-4-5-4-|------------------| 
G|-9--9-8-6-4|-x-x-x-x-|-8----------------| 
D|-9--9-8-6-4|-4-4-4-4-|-8-6--------------| 
A|-7--7-6-4-2|-2-2-2-2-|-6-6--------6-6---| 
E|-----------|---------|---4--4-7-7-----4-| 

            E5    E5 D#5 C#5 B5   D#5    G#5 
Kyou mo happii korekutaa shiriasu wo yuumoa ni 

Mami 
E|-x-|----------------|--------------------------------| 
B|-x-|----------------|(14)-12---(14)-12--(14)-12------| 
G|-x-|----------------|-------13--------13-------13-11-| 
D|-3-|---5------------|--------------------------------| 
A|-4-|-6---------6-6--|--------------------------------| 
E|-x-|-----4-7-7-----4|--------------------------------| 

Haru 
E|----|---------------|--------| 
B|----|---------------|--------| 
G|--6-|-8-------------|-6------| 
D|--6-|-8-------------|-6---4--| 
A|--4-|-6--------6-6--|-4---4--| 
E|----|----4-7-7-----4|-----2--| 

C#5                D#5     G#5 
Yarikirenai nara odorou 
        C#5 
Motto haitacchi! Haikikku! Haichiizu! 
F#5 
Waratte yo 

Mami 
E|----|------------------|-------------------------| 
B|-9--|16-16-17-16-17-16-|-16--16-16--16-16-16-16--| 
G|-9--|16-16-16-16-16-16-|-18--16-16--18-18-16-16--| 
D|-7--|------------------|-------------------------| 
A|----|------------------|-------------------------| 
E|----|------------------|-------------------------| 

Haru 
E|-----------|---------|------------------| 
B|-----------|-5-4-5-4-|------------------| 
G|-9--9-8-6-4|-x-x-x-x-|-8----------------| 
D|-9--9-8-6-4|-4-4-4-4-|-8-6--------------| 
A|-7--7-6-4-2|-2-2-2-2-|-6-6--------6-6---| 
E|-----------|---------|---4--4-7-7-----4-| 

            E5    E5 D#5 C#5 B5   D#5    G#5 
Ha, wa, yu? Happii korekutaa roorin na eburidee 

Mami 
E|-x-|----------------|--------------------------------| 
B|-x-|----------------|(14)-12---(14)-12--(14)-12------| 
G|-x-|----------------|-------13--------13-------13-11-| 
D|-3-|---5------------|--------------------------------| 
A|-4-|-6---------6-6--|--------------------------------| 
E|-x-|-----4-7-7-----4|--------------------------------| 

Haru 
E|----|---------------|-----------| 
B|----|---------------|-----------| 
G|--6-|-8-------------|-6------4--| 
D|--6-|-8-------------|-6---4--4--| 
A|--4-|-6--------6-6--|-4---4--2--| 
E|----|----4-7-7-----4|-----2-----| 

C#5                D#5     G#5 
Fuku kaze marugoto oikoshite 
        C#5 
Soshite supiidoappu! Sheipuappu! Nebagibappu! 
F#5                 B#5 
Taikutsu ni sayonara 

Solo 
Mami 
E|------------------------------| 
B|-16---14---12--------12--(16)-| 
G|---16---13----11--13--------12| 
D|------------------------------| 
A|------------------------------| 
E|------------------------------| 

E|--------------------------------------|-----14-------(19)-| 
B|-17-17-17-17-17-16-14----------12-(14)|-(14)-(14)-12------| 
G|----------------------16-16-18--------|-------------------| 
D|--------------------------------------|-------------------| 
A|--------------------------------------|-------------------| 
E|--------------------------------------|-------------------| 

E|16-----16----16---15----15----15--|-19----19----19---18----18-----18---| 
B|--16-----16----16---16----16----16|---19----19----19---19----19-----19-| 
G|----18-----18---------18----18----|-----21----21---------21----21------| 
D|----------------------------------|------------------------------------| 
A|----------------------------------|------------------------------------| 
E|----------------------------------|------------------------------------| 

Haru 
E|--7----------|-x-x-x--| 
B|--7----------|-x-x-x--| 
G|--8----------|-x-x-x--| 
D|--9--9-9-9-9-|-x-x-x--| 
A|--9--7-7-6-6-|-8-9-9--| 
E|--7----------|-6-7-7--|(2x) 

Mami 
E|-11---------|------------| 
B|-12---------|------------| 
G|-11--9-9-8-8|------------| 
D|------------|--8-9-9-----| 
A|------------|------------| 
E|------------|------------|(2x) 

B5                     E5 D#5 
Yellow purple red red green 
               A#5 B5 
Kattekimama yo onna wa 
B5                     E5 D#5 
Byuutii juushii she her her 
                 A#5 B5 
Sonde dou na no anta wa 

End with B5 
  

cifra enviadasem correções
enviado porenviada por:hugo_rodrigues
top 5 | scandal
top diversos
Outras músicas do artista letras do(a) Scandal
Top cifras »Top artistas »
Petaxxon Comunicação Online
Cifras.com.br - Melhor e mais completo site de cifras e tablaturas do Brasil
Mais de 1 milhão de acordes de músicas cadastradas desde 2003
As informações contidas no nosso site são colaborações de seus usuários e podem conter erros, sendo assim, não nos responsabilizamos sobre nenhuma destas.
close
menos
mais
close
Cor dos acordes:

Cor da letra:

 

save
close
close
 
redimensionar