Cifras e Tablaturas
Scars Of Life

Scars Of Life

It's Over

Cifras Cancelar Versão de Impressão Print

Scars Of Life - It's Over

Tom: C

  			 
 

Riff 1 (Guitar 1, clean, let all notes ring out) 
D|-----------------------------------| 
A|-----------------------------------| 
F|-----14----14----12----15----15----| 
C|---0----12----12----10----13----13-| x2 
G|-----------------------------------| 
C|-0---------------------------------| 

Riff 1 (Guitar 2, distortion) 
D|------------------| 
A|------------------| 
F|------------------| 
C|-0~---------------| 
G|-0~--volume swell-| 
C|-0~---------------| 

Riff 2   "It's over!!" 
D|------------------------------------------| 
A|------------------------------------------| 
F|----------7--------5--------8-------------| 
C|-0-0--0-0-x-0--0-0-x-0--0-0-x-0-----------| 
G|-0-0--0-0-5-0--0-0-3-0--0-0-6-0-----------| 
C|-0-0--0-0---0--0-0---0--0-0---0--11111111-| 
                                *  ******** 

Play above x2 

D|--------------------------------------------------| 
A|--------------------------------------------------| 
F|----------7-------------5-------------8-----------| 
C|-0-0--0-0-x-------------x-------------x-----0-4-3-| 
G|-0-0--0-0-5-------------3-------------6-----0-4-3-| 
C|-0-0--0-0---000-000-000---000-000-000---000-0-4-3-| 
              *** *** ***   *** *** ***   *** 

Fill 1 (Guitar 1) 
D|----------------------------------------------------------------------| 
A|----------------------------------------------------------------------| 
F|----------------------------------------------------------------------| 
C|-12-0-0-10-0-0-13-0-0-10-0-0-12-10-12-12-0-0-10-0-0-13-0-0-10-0-0-1-1-| 
G|------------------------------------------------------------------1-1-| 
C|------------------------------------------------------------------1-1-| 

Fill 1 (Guitar 2) 
D|-------------------| 
A|-------------------| 
F|-------------------| 
C|-0-------------1-1-| 
G|-0-------------1-1-| 
C|-0-------------1-1-| 

Riff 3 (Guitar 1, slightly palm muted) "A pillow lays beside me..." 
D|--------------------------------------| 
A|--------------------------------------| 
F|--------------------------------------| 
C|-12-0-0-10-0-0-13-0-0-10-0-0-12-10-12-| x3 
G|--------------------------------------| 
C|--------------------------------------| 

D|------------------------------------| 
A|------------------------------------| 
F|------------------------------------| 
C|-12-0-0-10-0-0-8-0-0-10-0-0-8-8-8-8-| 
G|------------------------------------| 
C|------------------------------------| 

Riff 3 (Guitar 2) 
D|------------------------------------------| 
A|------------------------------------------| 
F|------------------------------------------| 
C|------------------------------------------| 
G|-0-0-0-0--0-0-0-0-0----0-0-0-0--0-0-0-0-0-| 
C|-0-0-0-0--0-0-0-0-0----0-0-0-0--0-0-0-0-0-| 
   * * * *  * * * * *    * * * *  * * * * * 

D|------------------------------------------| 
A|------------------------------------------| 
F|------------------------------------------| 
C|------------------------------------------| 
G|-1-1-1-1--1-1-1-1-1----3-3-3-3--3-3-3-3-3-| 
C|-1-1-1-1--1-1-1-1-1----3-3-3-3--3-3-3-3-3-| 
   * * * *  * * * * *    * * * *  * * * * * 

Play Riff 3 x2   "I only hear the dust that's falling..." 

Riff 4 (Guitar 1) "Well this is finally over now..." 
D|-------------------------------------------------------| 
A|-10----10----10----13----13----13----10----10----10----| 
F|----10----10----10----10----10----10----10----10----10-| 
C|-------------------------------------------------------| 
G|-------------------------------------------------------| 
C|-------------------------------------------------------| 

D|-------------------------| 
A|-10-11-11-11-11-11-13-13-| 
F|-------------------------| 
C|-------------------------| 
G|-------------------------| 
C|-------------------------| 

Riff 4 (Guitar 2, just the chords) 
D|--------------------| 
A|-10----13----3------| 
F|-10----12----2----5-| 
C|-8-----10----0----3-| 
G|-8-----10----0----3-| 
C|-8-----10----0----3-| 

Play Riff 4 x2   "No more salt will fill the wounds..." 
Play Riff 2 x1   "It's over!!" 
Play Fill 1 x1 
Play Riff 3 x2   "This is the moment after..." 
Play Riff 4 x2   "Well this is finally over now..." 

Riff 5 (Guitar 1) "It's just another day..." 
D|-------------------------------------------------------------------| 
A|-10----10----10----13----13----13----10----10----10----------------| 
F|----10----10----10----10----10----10----10----10----10-------------| 
C|-------------------------------------------------------3-3-3-3-3-3-| 
G|-------------------------------------------------------3-3-3-3-3-3-| 
C|-------------------------------------------------------3-3-3-3-3-3-| 
                                                                 * * 

Riff 5 (Guitar 2) 
D|------------------------------| 
A|-10----13----3----------------| 
F|-10----12----2----------------| 
C|-8-----10----0----3-3-3-3-3-3-| 
G|-8-----10----0----3-3-3-3-3-3-| 
C|-8-----10----0----3-3-3-3-3-3-| 
                            * * 

Play Riff 1 x2 (Guitar 1 only) 

Riff 1 (Guitar 2) 
D|------------------------| 
A|------------------------| 
F|------------------------| 
C|------------------------| 
G|-0-0-0-0--------0-0-0-0-| 
C|-0-0-0-0--------0-0-0-0-| 
   * * * *        * * * * 

Riff 6 (both guitars) "Not again..." 
D|---------0-------------------------0-----------------| 
A|---------3-------------------------3-----------------| 
F|---------2-------------------------2-----------------| 
C|-0--0--0-0--0--0--0-0-3--3-0--0--0-0--0--0--0-0-5--3-| 
G|-0--0--0-1--0--0--0-0-3--3-0--0--0-1--0--0--0-0-3--1-| 
C|-0--0--0----0--0--0-0-3--3-0--0--0----0--0--0-0-5--3-| 

D|---------0-------------------------0---------------------| 
A|---------3-------------------------3---------------------| 
F|---------2-------------------------2---------------------| 
C|-0--0--0-0--0--0--0-0-3--3-0--0--0-0--0--0-0-0-0-0-0-0-0-| 
G|-0--0--0-1--0--0--0-0-3--3-0--0--0-1--0--0-0-0-0-0-0-0-0-| 
C|-0--0--0----0--0--0-0-3--3-0--0--0----0--0-0-0-0-0-0-0-0-| 
                                           * * * * * * * 

Fill 2 (Guitar 2, high harmony. Guitar 1 just harmonies by playing the 
        beginning bit of the verse) 
D|------------------------------------------------------------------------| 
A|------------------------------------------------------------------------| 
F|------------------------------------------------------------------------| 
C|-19-0-0-17-0-0-20-0-0-17-0-0-19-0-17-19-19-0-0-17-0-0-20-0-0-17-0-0-3-3-| 
G|--------------------------------------------------------------------3-3-| 
C|--------------------------------------------------------------------3-3-| 
                                                                      ^ ^ 
                                           both guitars end with this chord 

Play Riff 4 x2   "Well this is finally over now..." 
Play Riff 5 x1   "It's just another day..." 
Play Riff 2 x1   "It's over!!" (ends with a C chord)  
    	

enviado porenviado por: edsooliveira
cifra enviadaCorrigida por: sem correções
logo top cifrasComente
ico música do artistaMúsicas deste artista
ico curtiuCurtiu?
ico destaqueDestaque
Petaxxon Comunicação Online

Cifras.com.br - Melhor e mais completo site de cifras e tablaturas do Brasil Mais de 1 milhão de acordes de músicas cadastradas desde 2003
As informações contidas no nosso site são colaborações de seus usuários e podem conter erros, sendo assim, não nos responsabilizamos sobre nenhuma destas.

close
menos
mais
close
Cor dos acordes:

Cor da letra:

close
Alinhar acordes a direita Alinhar acordes a esquerda Alinhar acordes em baixo Alinhar acordes no topo
close
  Mostrar todos os acordes Esconder acordes muito fáceis Esconder acordes fáceis Esconder acordes intermediários
redimensionar
glossário