Cifras e Tablaturas
Scars Of Life

Scars Of Life

Water In My Hands

Cifras Cancelar Versão de Impressão Print

Scars Of Life - Water In My Hands

Tom: C

  			
Intro 
D |---------------------------------------------------------------| 
A |---------------------------------------------------------------| 
F |---------5/7---------5/7---------5/7---------5/7---------------| 
C |-1-0-1-0?5/7-1-0-1-0?5/7-1-0-1-0?5/7-1-0-1-0?5/7---------------| 
G |-1-0-1-0?3/5-1-0-1-0?3/5-1-0-1-0?3/5-1-0-1-0?3/5---------------| 
C |-1-0-1-0-----1-0-1-0-----1-0-1-0-----1-0-1-0-------------------| 


D |----------------------------------------------------------------------| 
A |----------------------------------------------------------------------| 
F |----------------------------------------------------------------------| 
C |-1-0-1-0-1111--1-0-1-0-1111--1-0-1-0-1111--1-0-1-0-1111---------------| 
G |-1-0-1-0-1111--1-0-1-0-1111--1-0-1-0-1111--1-0-1-0-1111---------------| 
C |-1-0-1-0-1111--1-0-1-0-1111--1-0-1-0-1111--1-0-1-0-1111---------------| 
PM ******************************************************* 

Verse 
D |-----------------------------------------------------------------------------| 
A |-----------------------------------------------------------------------------| 
F |-----------------------------------------------------------------------------| 
C |-0-0-0-0-0-------5-5-5-5-5-------0-0-0-0-0-------5-5-5-5-5-------------------| 
G |-0-0-0-0-0-------5-5-5-5-5-------0-0-0-0-0-------5-5-5-5-5-------------------| 
C |-0-0-0-0-0-------5-5-5-5-5-------0-0-0-0-0-------5-5-5-5-5-------------------| 
PM **********       *********       *********       ********* 


D |--------------------------------------------------------------------------| 
A |--------------------------------------------------------------------------| 
F |--------------------------------------------------------------------------| 
C |-1-0-1-0-------5-3-4-3-------1-0-1-0-------5-3-4-3~-----------------------| 
G |-1-0-1-0-------5-3-4-3-------1-0-1-0-------5-3-4-3~-----------------------| 
C |-1-0-1-0-------5-3-4-3-------1-0-1-0-------5-3-4-3~-----------------------| 
PM ******         *****         *****         ***** 

Chorus 
D |--------------------------------------------------------| 
A |--------------------------------------------------------| 
F |--------------------------------------------------------| 
C |-000000000-8888888888/3333333333/55555555555/1111111111-| 
G |-000000000-8888888888/3333333333/55555555555/1111111111-| 
C |-000000000-8888888888/3333333333/55555555555/1111111111-| 

Repeat 2nd intro riff, verse, and Chorus then play 

D |--------------------------------------| 
A |--------------------------------------| 
F |--------------------------------------| 
C |-1-0-----3-3-----1-0-----3-3----------| 
G |-1-0-----3-3-----1-0-----3-3----------| 
C |-1-0-----3-3-----1-0-----3-3----------| 



D |------------------------------------------| 
A |------------------------------------------| 
F |------------------------------------------| 
C |------------------------------------------| 
G |-0-0-0-0-0-010-0-0-0-0-0-333--------------| 
C |-0-0-0-0-0-010-0-0-0-0-0-333--------------| 
PM **************************** 

Repeat Chorus then Outro is just the Intro Riff 

Legend 
| /  Slide up 
| \  Slide down 
| *  Mute note 
=============================================================================== 
    	

enviado porenviado por: fernsantana
cifra enviadaCorrigida por: sem correções
logo top cifrasComente
ico música do artistaMúsicas deste artista
ico curtiuCurtiu?
ico destaqueDestaque
Petaxxon Comunicação Online

Cifras.com.br - Melhor e mais completo site de cifras e tablaturas do Brasil Mais de 1 milhão de acordes de músicas cadastradas desde 2003
As informações contidas no nosso site são colaborações de seus usuários e podem conter erros, sendo assim, não nos responsabilizamos sobre nenhuma destas.

close
menos
mais
close
Cor dos acordes:

Cor da letra:

close
Alinhar acordes a direita Alinhar acordes a esquerda Alinhar acordes em baixo Alinhar acordes no topo
close
  Mostrar todos os acordes Esconder acordes muito fáceis Esconder acordes fáceis Esconder acordes intermediários
redimensionar
glossário