Cifras e Tablaturas
Shaka Ponk

Shaka Ponk

On The Ro

Cifras Cancelar Versão de Impressão
cifras

Shaka Ponk - On The Ro

fixar na tela  
Exibindo: vídeo-aula ver clipes redimensionar

Tom:

  
Intro 
e|-------------------------------------------------------------------------------------------------------| 
B|-------------------------------------------------------------------------------------------------------| 
G|-------------------------------------------------------------------------------------------------------| 
D|----9--8--7--5----5--8--5--8--5--X--5----5--8--5--8--5--3--5----5--8--5--8--5--X--10---10--10--10------| 
A|----9--8--7--5----5--8--5--8--5--X--5----5--8--5--8--5--3--5----5--8--5--8--5--X--10---10--10--10------| 
D|----9--8--7--5----5--8--5--8--5--X--5----5--8--5--8--5--3--5----5--8--5--8--5--X--10---10--10--10------| 

e|-------------------------------------------------------------------------------------------------------| 
B|-------------------------------------------------------------------------------------------------------| 
G|-------------------------------------------------------------------------------------------------------| 
D|----9--8--7--5----5--8--5--8--5--X--5----5--8--5--8--5--3--5----5--8--5--8--5--X--10---10--10--10------| 
A|----9--8--7--5----5--8--5--8--5--X--5----5--8--5--8--5--3--5----5--8--5--8--5--X--10---10--10--10------| 
D|----9--8--7--5----5--8--5--8--5--X--5----5--8--5--8--5--3--5----5--8--5--8--5--X--10---10--10--10------| 

Verse 
               |PM  
e|-------------------------------------------------------------------------------------------------------| 
B|-------------------------------------------------------------------------------------------------------| 
G|-------------------------------------------------------------------------------------------------------| 
D|-------------------------------------------------------------------------------------------------------| 
A|-------------------------------------------------------------------------------------------------------| 
D|----9--8--7--5----5--8--5--8--5--X--5----5--8--5--8--5--3--5----5--8--5--8--5--X--10---10--10--10------| 

 |PM 
e|-------------------------------------------------------------------------------------------------------| 
B|-------------------------------------------------------------------------------------------------------| 
G|-------------------------------------------------------------------------------------------------------| 
D|-------------------------------------------------------------------------------------------------------| 
A|-------------------------------------------------------------------------------------------------------| 
D|----9--8--7--5----5--8--5--8--5--X--5----5--8--5--8--5--3--5----5--8--5--8--5--X--10---10--10--10------| 

Chorus X2 
 |PM           |Let ring 
e|-------------|----------------------------------------------------------------------------------------| 
B|-------------|----------------------------------------------------------------------------------------| 
G|-------------|----------------------------------------------------------------------------------------| 
D|-------------|--5----5----5----5----3--3-/-5----5----5----5----3--3-/-5----5----5----5----------------|  
A|-------------|--5----5----5----5----3--3-/-5----5----5----5----3--3-/-5----5----5----5----------------| 
D|----9--8--7--|--5----5----5----5----3--3-/-5----5----5----5----3--3-/-5----5----5----5----------------| 

Verse 
               |PM  
e|-------------------------------------------------------------------------------------------------------| 
B|-------------------------------------------------------------------------------------------------------| 
G|-------------------------------------------------------------------------------------------------------| 
D|-------------------------------------------------------------------------------------------------------| 
A|-------------------------------------------------------------------------------------------------------| 
D|----9--8--7--5----5--8--5--8--5--X--5----5--8--5--8--5--3--5----5--8--5--8--5--X--10---10--10--10------| 

 |PM 
e|-------------------------------------------------------------------------------------------------------| 
B|-------------------------------------------------------------------------------------------------------| 
G|-------------------------------------------------------------------------------------------------------| 
D|-------------------------------------------------------------------------------------------------------| 
A|-------------------------------------------------------------------------------------------------------| 
D|----9--8--7--5----5--8--5--8--5--X--5----5--8--5--8--5--3--5----5--8--5--8--5--X--10---10--10--10------| 

Chorus 
 |PM           |Let ring 
e|-------------|----------------------------------------------------------------------------------------| 
B|-------------|----------------------------------------------------------------------------------------| 
G|-------------|----------------------------------------------------------------------------------------| 
D|-------------|--5----5----5----5----3--3-/-5----5----5----5----3--3-/-5----5----5----5----------------|  
A|-------------|--5----5----5----5----3--3-/-5----5----5----5----3--3-/-5----5----5----5----------------| 
D|----9--8--7--|--5----5----5----5----3--3-/-5----5----5----5----3--3-/-5----5----5----5----------------| 

Bridge 
e|------------------------------------------------------------------------------------------------------| 
B|------------------------------------------------------------------------------------------------------| 
G|---------/--10-10-10-10-10-10-10-10-10-10-10-10-10-10-10-10-10-10-10-10-10-10--X----------------------| 
D|----3--3-/--10-10-10-10-10-10-10-10-10-10-10-10-10-10-10-10-10-10-10-10-10-10--X--8--8--X--8--8-------| 
A|----3--3-/--8--8--8--8--8--8--8--8--8--8--8--8--8--8--8--8--8--8--8--8--8--8---X--8--8--X--8--8-------| 
D|----3--3-/---------------------------------------------------------------------X--8--8--X--8--8-------| 

Interlude 
e|-----------------------------------------------------------------------------------------------------| 
B|-----------------------------------------------------------------------------------------------------| 
G|-----------------------------------------------------------------------------------------------------| 
D|----5----5--8--8--7--7--X--5----8--8--7--7--X--5----8--8--7--7--X--10--10--10--10--9--8--7-----------| X2 
A|----5----5--8--8--7--7--X--5----8--8--7--7--X--5----8--8--7--7--X--10--10--10--10--9--8--7-----------| 
D|----5----5--8--8--7--7--X--5----8--8--7--7--X--5----8--8--7--7--X--10--10--10--10--9--8--7-----------| 

e|-----------------------------------------------------------------------------------------------------| 
B|-----------------------------------------------------------------------------------------------------| 
G|-----------------------------------------------------------------------------------------------------| 
D|----XX--5--X--5---------5--X--5--------5-------------------------------------------------------------| 
A|----XX--5--X--5---------5--X--5--------5-------------------------------------------------------------| 
D|----XX--5--X--5---------5--X--5--------5-------------------------------------------------------------| 

Chorus X3 
e|-----------------------------------------------------------------------------------------------------| 
B|-----------------------------------------------------------------------------------------------------| 
G|-----------------------------------------------------------------------------------------------------| 
D|--5----5----5----5----3--3-/-5----5----5----5----3--3-/-5----5----5----5-----------------------------|  
A|--5----5----5----5----3--3-/-5----5----5----5----3--3-/-5----5----5----5-----------------------------| 
D|--5----5----5----5----3--3-/-5----5----5----5----3--3-/-5----5----5----5-----------------------------| 

Bridge 
e|------------------------------------------------------------------------------------------------------| 
B|------------------------------------------------------------------------------------------------------| 
G|---------/--10-10-10-10-10-10-10-10-10-10-10-10-10-10-10-10-10-10-10-10-10-10--X----------------------| 
D|----3--3-/--10-10-10-10-10-10-10-10-10-10-10-10-10-10-10-10-10-10-10-10-10-10--X--8--8--X--8--8-------| 
A|----3--3-/--8--8--8--8--8--8--8--8--8--8--8--8--8--8--8--8--8--8--8--8--8--8---X--8--8--X--8--8-------| 
D|----3--3-/---------------------------------------------------------------------X--8--8--X--8--8-------| 

Outro 
e|-------------------------------------------------------------------------------------------------------| 
B|-------------------------------------------------------------------------------------------------------| 
G|-------------------------------------------------------------------------------------------------------| 
D|----9--8--7--5----5--8--5--8--5--X--5----5--8--5--8--5--3--5----5--8--5--8--5--X--10---10--10--10------| 
A|----9--8--7--5----5--8--5--8--5--X--5----5--8--5--8--5--3--5----5--8--5--8--5--X--10---10--10--10------| 
D|----9--8--7--5----5--8--5--8--5--X--5----5--8--5--8--5--3--5----5--8--5--8--5--X--10---10--10--10------| 

e|-------------------------------------------------------------------------------------------------------| 
B|-------------------------------------------------------------------------------------------------------| 
G|-------------------------------------------------------------------------------------------------------| 
D|----9--8--7--5----5--8--5--8--5--X--5----5--8--5--8--5--3--5----5--8--5--8--5--X--10---10--10--10------| 
A|----9--8--7--5----5--8--5--8--5--X--5----5--8--5--8--5--3--5----5--8--5--8--5--X--10---10--10--10------| 
D|----9--8--7--5----5--8--5--8--5--X--5----5--8--5--8--5--3--5----5--8--5--8--5--X--10---10--10--10------| 

e|------------------| 
B|------------------| 
G|------------------| 
D|----9--8--7--5----| 
A|----9--8--7--5----| 
D|----9--8--7--5----| 



************************************ 

| PM  Palm mute 
| /   Slide up 

************************************ 
  

top 5 | shaka ponk
top eletrônica
Outras músicas do artista letras do(a) Shaka Ponk
Top cifras »Top artistas »
Petaxxon Comunicação Online
Cifras.com.br - Melhor e mais completo site de cifras e tablaturas do Brasil
Mais de 1 milhão de acordes de músicas cadastradas desde 2003
As informações contidas no nosso site são colaborações de seus usuários e podem conter erros, sendo assim, não nos responsabilizamos sobre nenhuma destas.
close
menos
mais
close
Cor dos acordes:

Cor da letra:

 

save
close
close
 
redimensionar