Cifras e Tablaturas
Skillet

Skillet

You Get Me High

Cifras Cancelar Versão de Impressão
cifras

Skillet - You Get Me High

fixar na tela  
Exibindo: vídeo-aula ver clipes redimensionar

Tom:

  
Intro 

e|----------------|-------------------| 
B|----------------|-------------------| 
G|--4-4-----------|--4-4--------------| 
D|--4-4-2-4---x-0-|--4-4-2-5-x-x-x-0--| x4 
A|--2-2-2-4---x-0-|--2-2-2-5-x-x-x-0--| 
D|------2-4---x-0-|------2-5-x-x-x-0--| 

Verse 
e|----------------|----------------|----------------|---------------------| 
B|----------------|----------------|----------------|---------------------| 
G|--4-4-----------|--4-4-----------|--4-4-----------|---------------------| 
D|--4-4-2-4---x-0-|--4-4-2-4---x-0-|--4-4-2-4---x-0-|--x-x-x-x--x-x-x-x-x-| x2 
A|--2-2-2-4---x-0-|--2-2-2-4---x-0-|--2-2-2-4---x-0-|--x-x-x-x--x-x-x-x-x-|(second time through play last bar 
D|------2-4---x-0-|------2-4---x-0-|------2-4---x-0-|--x-x-x-x--x-x-x-x-x-|like the rest) 
(listen to song for rhythm) 

(No playing through the first Pre-Chorus) 
Chorus 

e|---------|---------|---------|---------| 
B|---------|---------|---------|---------| 
G|---------|-2-2-2-2-|-4-4-4-4-|---------| 
D|-2-2-2-2-|-2-2-2-2-|-4-4-4-4-|-5-5-5-5-| x3 
A|-2-2-2-2-|-0-0-0-0-|-2-2-2-2-|-5-5-5-5-| 
D|-2-2-2-2-|---------|---------|-5-5-5-5-| 

Post-Chorus 
Lead guitar 
e|------------------------| 
B|-12--10-12-10-----------| 
G|--------------11-9-11-7-| 
D|------------------------| x2 
A|------------------------| 
D|------------------------| 

Verse 
e|----------------|----------------|----------------|---------------------| 
B|----------------|----------------|----------------|---------------------| 
G|--4-4-----------|--4-4-----------|--4-4-----------|---------------------| 
D|--4-4-2-4---x-0-|--4-4-2-4---x-0-|--4-4-2-4---x-0-|--x-x-x-x--x-x-x-x-x-| x2 
A|--2-2-2-4---x-0-|--2-2-2-4---x-0-|--2-2-2-4---x-0-|--x-x-x-x--x-x-x-x-x-|(second time through play last bar 
D|------2-4---x-0-|------2-4---x-0-|------2-4---x-0-|--x-x-x-x--x-x-x-x-x-|like the rest) 
(listen to song for rhythm) 

(Not sure about this part) 
Pre-Chorus 
e|10-10-10-10-5-5-5-5-1-1-1-1-2-2-2-2-| 
B|------------------------------------| 
G|------------------------------------| 
D|------------------------------------| 
A|------------------------------------| 
D|------------------------------------| 

Chorus 
e|---------|---------|---------|---------| 
B|---------|---------|---------|---------| 
G|---------|-2-2-2-2-|-4-4-4-4-|---------| 
D|-2-2-2-2-|-2-2-2-2-|-4-4-4-4-|-5-5-5-5-| x3 
A|-2-2-2-2-|-0-0-0-0-|-2-2-2-2-|-5-5-5-5-| 
D|-2-2-2-2-|---------|---------|-5-5-5-5-| 

Solo 
Rhythm Guitar 
e|---------|---------|---------|---------| 
B|---------|---------|---------|---------| 
G|---------|-2-2-2-2-|-4-4-4-4-|---------| 
D|-2-2-2-2-|-2-2-2-2-|-4-4-4-4-|-5-5-5-5-| x2 
A|-2-2-2-2-|-0-0-0-0-|-2-2-2-2-|-5-5-5-5-| 
D|-2-2-2-2-|---------|---------|-5-5-5-5-| 

(Don't know thew lead guitar part yet, sorry) 

Interlude 
e|----------------| 
B|----------------| 
G|--4-4-----------| 
D|--4-4-2-4---x-0-|x2 
A|--2-2-2-4---x-0-| 
D|------2-4---x-0-| 

(Again not sure about this part) 
Pre-Chorus 
e|10-10-10-10-5-5-5-5-1-1-1-1-2-2-2-2-| 
B|------------------------------------| 
G|------------------------------------| 
D|------------------------------------| 
A|------------------------------------| 
D|------------------------------------| 

Chorus 
e|---------|---------|---------|---------| 
B|---------|---------|---------|---------| 
G|---------|-2-2-2-2-|-4-4-4-4-|---------| 
D|-2-2-2-2-|-2-2-2-2-|-4-4-4-4-|-5-5-5-5-| x4 
A|-2-2-2-2-|-0-0-0-0-|-2-2-2-2-|-5-5-5-5-| 
D|-2-2-2-2-|---------|---------|-5-5-5-5-| 

Outro 

Lead guitar 
e|------------------------| 
B|-12--10-12-10-----------| 
G|--------------11-9-11-7-| 
D|------------------------| x2 
A|------------------------| 
D|------------------------| 



************************************ 

| x  Dead note 

************************************ 
  

top 5 | skillet
top rock alternativo
Outras músicas do artista letras do(a) Skillet
Top cifras »Top artistas »
Petaxxon Comunicação Online
Cifras.com.br - Melhor e mais completo site de cifras e tablaturas do Brasil
Mais de 1 milhão de acordes de músicas cadastradas desde 2003
As informações contidas no nosso site são colaborações de seus usuários e podem conter erros, sendo assim, não nos responsabilizamos sobre nenhuma destas.
close
menos
mais
close
Cor dos acordes:

Cor da letra:

 

save
close
close
 
redimensionar