Cifras e Tablaturas
Slaves

Slaves

Photo Opportunity

Cifras Cancelar Versão de Impressão

Slaves - Photo Opportunity

Tom:

  			Intro 
e|---------------------------------------------------------------------------| 
B|---------------------------------------------------------------------------| 
G|-------3-3-----3-3--/---6-6-----6-6-/----8-8-----8-8-\----3-3-----3-3------| 
D|---------------------------------------------------------------------------| 
A|---------------------------------------------------------------------------| 
E|----2--2-2--2--2-2-/-6--6-6--6--6-6-/-7--7-7--7--7-7-\-2--2-2--2--2-2------| 

e|---------------------------------------------------------------------------| 
B|---------------------------------------------------------------------------| 
G|-------3-3-----3-3--/---6-6-----6-6-/----8-8-----8-8-\----3-3-----3-3------| 
D|---------------------------------------------------------------------------| 
A|---------------------------------------------------------------------------| 
E|----2--2-2--2--2-2-/-6--6-6--6--6-6-/-7--7-7--7--7-7-\-2--2-2--2--2-2------| 
E|---------------------------------------------------------------------------| 

Verse 
e|---------------------------------------------------------------------------| 
B|---------------------------------------------------------------------------| 
G|-------3-3-----3-3--/---6-6-----6-6-/----8-8-----8-8-\----3-3-----3-3------| 
D|---------------------------------------------------------------------------| 
A|---------------------------------------------------------------------------| 
E|----2--2-2--2--2-2-/-6--6-6--6--6-6-/-7--7-7--7--7-7-\-2--2-2--2--2-2------| 

e|---------------------------------------------------------------------------| 
B|---------------------------------------------------------------------------| 
G|-------3-3-----3-3--/---6-6-----6-6-/----8-8-----8-8-\----3-3-----3-3------| 
D|---------------------------------------------------------------------------| 
A|---------------------------------------------------------------------------| 
E|----2--2-2--2--2-2-/-6--6-6--6--6-6-/-7--7-7--7--7-7-\-2--2-2--2--2-2------| 

e|---------------------------------------------------------------------------| 
B|---------------------------------------------------------------------------| 
G|-------3-3-----3-3--/---6-6-----6-6-/----8-8-----8-8-\----3-3-----3-3------| 
D|---------------------------------------------------------------------------| 
A|---------------------------------------------------------------------------| 
E|----2--2-2--2--2-2-/-6--6-6--6--6-6-/-7--7-7--7--7-7-\-2--2-2--2--2-2------| 

e|---------------------------------------------------------------------------| 
B|---------------------------------------------------------------------------| 
G|-------3-3-----3-3--/---6-6-----6-6-/----8-8-----8-8-\----3-3-----3-3------| 
D|---------------------------------------------------------------------------| 
A|---------------------------------------------------------------------------| 
E|----2--2-2--2--2-2-/-6--6-6--6--6-6-/-7--7-7--7--7-7-\-2--2-2--2--2-2------| 

Chorus 
e|---------------------------------------------------------------------------| 
B|---------------------------------------------------------------------------| 
G|---------------------------------------------------------------------------| 
D|---4-4-4-4-4-4---8-8-8-8-8-8---2-2-2-2-2-2---9-9-9-9-9-9-------------------| 
A|---4-4-4-4-4-4---8-8-8-8-8-8---2-2-2-2-2-2---9-9-9-9-9-9-------------------| 
E|---2-2-2-2-2-2---6-6-6-6-6-6---0-0-0-0-0-0---7-7-7-7-7-7-------------------| 

e|---------------------------------------------------------------------------| 
B|---------------------------------------------------------------------------| 
G|---------------------------------------------------------------------------| 
D|---4-4-4-4-4-4---8-8-8-8-8-8---2-2-2-2-2-2---9-9-9-9-9-9-------------------| 
A|---4-4-4-4-4-4---8-8-8-8-8-8---2-2-2-2-2-2---9-9-9-9-9-9-------------------| 
E|---2-2-2-2-2-2---6-6-6-6-6-6---0-0-0-0-0-0---7-7-7-7-7-7-------------------| 

Post-Chorus 
e|---------------------------------------------------------------------------| 
B|---------------------------------------------------------------------------| 
G|-------3-3-----3-3--/---6-6-----6-6-/----8-8-----8-8-\----3-3-----3-3------| 
D|---------------------------------------------------------------------------| 
A|---------------------------------------------------------------------------| 
E|----2--2-2--2--2-2-/-6--6-6--6--6-6-/-7--7-7--7--7-7-\-2--2-2--2--2-2------| 

e|---------------------------------------------------------------------------| 
B|---------------------------------------------------------------------------| 
G|-------3-3-----3-3--/---6-6-----6-6-/----8-8-----8-8-\----3-3-----3-3------| 
D|---------------------------------------------------------------------------| 
A|---------------------------------------------------------------------------| 
E|----2--2-2--2--2-2-/-6--6-6--6--6-6-/-7--7-7--7--7-7-\-2--2-2--2--2-2------| 

verse 2 
e|---------------------------------------------------------------------------| 
B|---------------------------------------------------------------------------| 
G|-------3-3-----3-3--/---6-6-----6-6-/----8-8-----8-8-\----3-3-----3-3------| 
D|---------------------------------------------------------------------------| 
A|---------------------------------------------------------------------------| 
E|----2--2-2--2--2-2-/-6--6-6--6--6-6-/-7--7-7--7--7-7-\-2--2-2--2--2-2------| 

e|---------------------------------------------------------------------------| 
B|---------------------------------------------------------------------------| 
G|-------3-3-----3-3--/---6-6-----6-6-/----8-8-----8-8-\----3-3-----3-3------| 
D|---------------------------------------------------------------------------| 
A|---------------------------------------------------------------------------| 
E|----2--2-2--2--2-2-/-6--6-6--6--6-6-/-7--7-7--7--7-7-\-2--2-2--2--2-2------| 

e|---------------------------------------------------------------------------| 
B|---------------------------------------------------------------------------| 
G|-------3-3-----3-3--/---6-6-----6-6-/----8-8-----8-8-\----3-3-----3-3------| 
D|---------------------------------------------------------------------------| 
A|---------------------------------------------------------------------------| 
E|----2--2-2--2--2-2-/-6--6-6--6--6-6-/-7--7-7--7--7-7-\-2--2-2--2--2-2------| 

e|---------------------------------------------------------------------------| 
B|---------------------------------------------------------------------------| 
G|-------3-3-----3-3--/---6-6-----6-6-/----8-8-----8-8-\----3-3-----3-3------| 
D|---------------------------------------------------------------------------| 
A|---------------------------------------------------------------------------| 
E|----2--2-2--2--2-2-/-6--6-6--6--6-6-/-7--7-7--7--7-7-\-2--2-2--2--2-2------| 

Chorus 2 
e|---------------------------------------------------------------------------| 
B|---------------------------------------------------------------------------| 
G|---------------------------------------------------------------------------| 
D|---4-4-4-4-4-4---8-8-8-8-8-8---2-2-2-2-2-2---9-9-9-9-9-9-------------------| 
A|---4-4-4-4-4-4---8-8-8-8-8-8---2-2-2-2-2-2---9-9-9-9-9-9-------------------| 
E|---2-2-2-2-2-2---6-6-6-6-6-6---0-0-0-0-0-0---7-7-7-7-7-7-------------------| 

e|---------------------------------------------------------------------------| 
B|---------------------------------------------------------------------------| 
G|---------------------------------------------------------------------------| 
D|---4-4-4-4-4-4---8-8-8-8-8-8---2-2-2-2-2-2---9-9-9-9-9-9-------------------| 
A|---4-4-4-4-4-4---8-8-8-8-8-8---2-2-2-2-2-2---9-9-9-9-9-9-------------------| 
E|---2-2-2-2-2-2---6-6-6-6-6-6---0-0-0-0-0-0---7-7-7-7-7-7-------------------| 

e|---------------------------------------------------------------------------| 
B|---------------------------------------------------------------------------| 
G|---------------------------------------------------------------------------| 
D|---4-4-4-4-4-4---8-8-8-8-8-8---2-2-2-2-2-2---9-9-9-9-9-9-------------------| 
A|---4-4-4-4-4-4---8-8-8-8-8-8---2-2-2-2-2-2---9-9-9-9-9-9-------------------| 
E|---2-2-2-2-2-2---6-6-6-6-6-6---0-0-0-0-0-0---7-7-7-7-7-7-------------------| 

e|---------------------------------------------------------------------------| 
B|---------------------------------------------------------------------------| 
G|---------------------------------------------------------------------------| 
D|---4-4-4-4-4-4---8-8-8-8-8-8---2-2-2-2-2-2---9-9-9-9-9-9-------------------| 
A|---4-4-4-4-4-4---8-8-8-8-8-8---2-2-2-2-2-2---9-9-9-9-9-9-------------------| 
E|---2-2-2-2-2-2---6-6-6-6-6-6---0-0-0-0-0-0---7-7-7-7-7-7-------------------| 

Post-Chorus 
e|---------------------------------------------------------------------------| 
B|---------------------------------------------------------------------------| 
G|-------3-3-----3-3--/---6-6-----6-6-/----8-8-----8-8-\----3-3-----3-3------| 
D|---------------------------------------------------------------------------| 
A|---------------------------------------------------------------------------| 
E|----2--2-2--2--2-2-/-6--6-6--6--6-6-/-7--7-7--7--7-7-\-2--2-2--2--2-2------| 

e|---------------------------------------------------------------------------| 
B|---------------------------------------------------------------------------| 
G|-------3-3-----3-3--/---6-6-----6-6-/----8-8-----8-8-\----3-3-----3-3------| 
D|---------------------------------------------------------------------------| 
A|---------------------------------------------------------------------------| 
E|----2--2-2--2--2-2-/-6--6-6--6--6-6-/-7--7-7--7--7-7-\-2--2-2--2--2-2------| 

Outro/verse 3 
e|---------------------------------------------------------------------------| 
B|---------------------------------------------------------------------------| 
G|-------3-3-----3-3--/---6-6-----6-6-/----8-8-----8-8-\----3-3-----3-3------| 
D|---------------------------------------------------------------------------| 
A|---------------------------------------------------------------------------| 
E|----2--2-2--2--2-2-/-6--6-6--6--6-6-/-7--7-7--7--7-7-\-2--2-2--2--2-2------| 

e|---------------------------------------------------------------------------| 
B|---------------------------------------------------------------------------| 
G|-------3-3-----3-3--/---6-6-----6-6-/----8-8-----8-8-\----3-3-----3-3------| 
D|---------------------------------------------------------------------------| 
A|---------------------------------------------------------------------------| 
E|----2--2-2--2--2-2-/-6--6-6--6--6-6-/-7--7-7--7--7-7-\-2--2-2--2--2-2------| 



************************************ 

| /   Slide up 
| \   Slide down 

************************************ 
    	
fixar
fixar inscrever-se

enviado porenviado por: carlluz
cifra enviadaCorrigida por: sem correções
logo top cifrasComente
ico música do artistaMúsicas deste artista
ico curtiuCurtiu?
ico destaqueDestaque
Petaxxon Comunicação Online

Cifras.com.br - Melhor e mais completo site de cifras e tablaturas do Brasil Mais de 1 milhão de acordes de músicas cadastradas desde 2003
As informações contidas no nosso site são colaborações de seus usuários e podem conter erros, sendo assim, não nos responsabilizamos sobre nenhuma destas.

close
menos
mais
close
Cor dos acordes:

Cor da letra:

close
Alinhar acordes a direita Alinhar acordes a esquerda Alinhar acordes em baixo Alinhar acordes no topo
close
  Mostrar todos os acordes Esconder acordes muito fáceis Esconder acordes fáceis Esconder acordes intermediários
redimensionar
glossário