Cifras e Tablaturas
Slaves

Slaves

Spit It Out

Cifras Cancelar Versão de Impressão
cifras

Slaves - Spit It Out

fixar na tela  
Exibindo: vídeo-aula ver clipes redimensionar

Tom:

  
Intro 

P.M............................................................... 
e|---------------------------------------------------------------------------| 
B|---------------------------------------------------------------------------| 
G|---------------------------------------------------------------------------| 
D|---------------------------------------------------------------------------|   X2 
A|---------------------------------------------------------------------------| 
E|2-2-3-2-2-2-3-2-2-2-3-2-2-2-3-2-5-5-6-5-5-5-6-5-5-5-6-5-5-5-6-5------------| 


Verse 
Here he turns on an EHX POG with the sub octave 

P.M............................................................... 
e|---------------------------------------------------------------------------| 
B|---------------------------------------------------------------------------| 
G|---------------------------------------------------------------------------| 
D|---------------------------------------------------------------------------| 
A|---------------------------------------------------------------------------| 
E|2-2-3-2-2-2-3-2-2-2-3-2-2-2-3-2-5-5-6-5-5-5-6-5-5-5-6-5-5-5-6-5------------| 

P.M...............................         POG OFF 
e|----------------------------------------------| 
B|----------------------------------------------| 
G|----------------------------------------------| 
D|-----------------------------------------9-10-| 
A|-----------------------------------------9-10-| 
E|2-2-3-2-2-2-3-2-2-2-3-2-2-2-3-2-5-5-6-5--7-8--| 


Chorus 

e|---------------------------------------------------------------------------| 
B|---------------------------------------------------------------------------| 
G|---------------------------------------------------------------------------| 
D|4--4-4--10-9--7--7-7--9-10-------------------------------------------------|   X4 
A|4--4-4--10-9--7--7-7--9-10-------------------------------------------------| 
E|2--2-2--8--7--5--5-5--7-8--------------------------------------------------| 

verse 2 Pick the notes with more attack in this verse 
POG ON  

P.M............................................................... 
e|-------------------------------------------------------------------| 
B|-------------------------------------------------------------------| 
G|-------------------------------------------------------------------|   
D|-------------------------------------------------------------------|   X3 
A|-------------------------------------------------------------------| 
E|2-2-3-2-2-2-3-2-2-2-3-2-2-2-3-2-5-5-6-5-5-5-6-5-5-5-6-5-5-5-6-5----| 

P.M...............................           POG OFF 
e|------------------------------------------------| 
B|------------------------------------------------| 
G|------------------------------------------------| 
D|-------------------------------------------9-10-| 
A|-------------------------------------------9-10-| 
E|2-2-3-2-2-2-3-2-2-2-3-2-2-2-3-2-5-5-6-5-5--7-8--| 


Chorus 

e|---------------------------------------------------------------------------| 
B|---------------------------------------------------------------------------| 
G|---------------------------------------------------------------------------| 
D|4--4-4--10-9--7--7-7--9-10-------------------------------------------------|   X4 
A|4--4-4--10-9--7--7-7--9-10-------------------------------------------------| 
E|2--2-2--8--7--5--5-5--7-8--------------------------------------------------| 


verse 3 
POG ON  

P.M............................................................... 
e|-------------------------------------------------------------------| 
B|-------------------------------------------------------------------| 
G|-------------------------------------------------------------------|   
D|-------------------------------------------------------------------|   X3 
A|-------------------------------------------------------------------| 
E|2-2-3-2-2-2-3-2-2-2-3-2-2-2-3-2-5-5-6-5-5-5-6-5-5-5-6-5-5-5-6-5----| 

P.M...............................           POG OFF 
e|------------------------------------------------| 
B|------------------------------------------------| 
G|------------------------------------------------| 
D|-------------------------------------------9-10-| 
A|-------------------------------------------9-10-| 
E|2-2-3-2-2-2-3-2-2-2-3-2-2-2-3-2-5-5-6-5-5--7-8--| 


Chorus 

e|---------------------------------------------------------------------------| 
B|---------------------------------------------------------------------------| 
G|---------------------------------------------------------------------------| 
D|4--4-4--10-9--7--7-7--9-10-------------------------------------------------|   X4 
A|4--4-4--10-9--7--7-7--9-10-------------------------------------------------| 
E|2--2-2--8--7--5--5-5--7-8--------------------------------------------------| 


Bridge 
POG ON 
P.M.................................................... 
e|---------------------------------------------------------------------------| 
B|---------------------------------------------------------------------------| 
G|---------------------------------------------------------------------------| 
D|---------------------------------------------------------------------------| 
A|---------------------------------------------------------------------------|  
E|2-2-5-3-5-3-2--2-2-5-3-2----2-3-5-3-5-3-2--2-2-5-3-2-----------------------| 

P.M............................................................... 
e|-------------------------------------------------------------------| 
B|-------------------------------------------------------------------| 
G|-------------------------------------------------------------------|   
D|-------------------------------------------------------------------|  
A|-------------------------------------------------------------------| 
E|2-2-3-2-2-2-3-2-2-2-3-2-2-2-3-2-5-5-6-5-5-5-6-5-5-5-6-5-5-5-6-5----| 

P.M...............................           POG OFF 
e|------------------------------------------------| 
B|------------------------------------------------| 
G|------------------------------------------------| 
D|-------------------------------------------9-10-| 
A|-------------------------------------------9-10-| 
E|2-2-3-2-2-2-3-2-2-2-3-2-2-2-3-2-5-5-6-5-5--7-8--| 


Chorus 

e|---------------------------------------------------------------------------| 
B|---------------------------------------------------------------------------| 
G|---------------------------------------------------------------------------| 
D|4--4-4--10-9--7--7-7--9-10-------------------------------------------------|   X8 
A|4--4-4--10-9--7--7-7--9-10-------------------------------------------------| 
E|2--2-2--8--7--5--5-5--7-8--------------------------------------------------| 



************************************ 

| x   Dead note 
| g   Grace note 
| (n) Ghost note 
| h   Hammer-on 
| p   Pull-off 
| r   Release 
| >   Accented note 
| t   Tapping 
| b   Bend 
| br  Bend release 
| pb  Pre-bend 
| pbr Pre-bend release 
| /   Slide up 
| \   Slide down 
| ~   Vibrato 
| s   Slap 
| P   Pop 
| PM  Palm mute 
| TR  Trill 
| N   Tremolo 

************************************ 
  

top 5 | slaves
top rock'n roll
Outras músicas do artista letras do(a) Slaves
4.
Ok
Top cifras »Top artistas »
Petaxxon Comunicação Online
Cifras.com.br - Melhor e mais completo site de cifras e tablaturas do Brasil
Mais de 1 milhão de acordes de músicas cadastradas desde 2003
As informações contidas no nosso site são colaborações de seus usuários e podem conter erros, sendo assim, não nos responsabilizamos sobre nenhuma destas.
close
menos
mais
close
Cor dos acordes:

Cor da letra:

 

save
close
close
 
redimensionar