Cifras e Tablaturas
Sleeping With Sirens

Sleeping With Sirens

In Case Of Emergency Dial 411

Cifras Cancelar Versão de Impressão
cifras

Sleeping With Sirens - In Case Of Emergency Dial 411

fixar na tela  
Exibindo: vídeo-aula ver clipes redimensionar
  
Intro 
D#|----12----12----12----12-|----12----12----12----12-| 
A#|-15----15----15----15----|-15----15----15----15----| 
F#|-------------------------|-------------------------| 
C#|-------------------------|-------------------------| 
G#|-------------------------|-------------------------| 
C#|-------------------------|-------------------------| 

D#|-----------------|--------------------------|-----------------|---------------------------| 
A#|-----------------|--------------------------|-----------------|---------------------------| 
F#|-----------------|--------------------------|-----------------|---------------------------| 
C#|-5---5-5-5--5--5-|----4--4--4--4--4--4--x-x-|-5---5-5-5--5--5-|----4--4--4--4--4--4--4--x-| 
G#|-7---7-7-7--7--7-|-x--5--5--5--5--5--5--x-x-|-7---7-7-7--7--7-|-x--5--5--5--5--5--5--5--x-| 
C#|-----------------|--------------------------|-----------------|---------------------------| 

D#|-15p12----12----12----12-|----14----14----15----15-| 
A#|-------15----15----15----|-15----15----15----15----| 
F#|-------------------------|-------------------------| 
C#|-------------------------|-------------------------| 
G#|-------------------------|-------------------------| 
C#|-------------------------|-------------------------| 
                tri pl  et   tripl  et tri  pl  et 
D#|------------------------|-----------------------| 
A#|-------------15---------|-----------------------| 
F#|-------11h12-----12-----|-----------------------| 
C#|-12h14---------------14-|-17\16-----------------| 
G#|------------------------|--------17--14--12--10-| 
C#|------------------------|-----------------------| 

D#|-----------------|--------------------------|-----------------|---------------------------| 
A#|-----------------|--------------------------|-----------------|---------------------------| 
F#|-----------------|--------------------------|-----------------|---------------------------| 
C#|-5---5-5-5--5--5-|----4--4--4--4--4--4--x-x-|-5---5-5-5--5--5-|----4--4--4--4--4--4--4--x-| 
G#|-7---7-7-7--7--7-|-x--5--5--5--5--5--5--x-x-|-7---7-7-7--7--7-|-x--5--5--5--5--5--5--5--x-| 
C#|-----------------|--------------------------|-----------------|---------------------------| 

D#|-15p12----12----12----12-|----14----14----15----15-| 
A#|-------15----15----15----|-15----15----15----15----| 
F#|-------------------------|-------------------------| 
C#|-------------------------|-------------------------| 
G#|-------------------------|-------------------------| 
C#|-------------------------|-------------------------| 
                tri pl  et   tri pl  et  tri pl  et 
D#|------------------------|------------------------| 
A#|-------------15---------|------------------------| 
F#|-------11h12-----12-----|------------------------| 
C#|-12h14---------------14-|-17--16-----------------| 
G#|------------------------|---------17--14--12--10-| 
C#|------------------------|------------------------| 

verse 1 
D#|-------------|-----------------|-------------|----| 
A#|-------------|-----------------|-------------|----| 
F#|-------------|-4p0-----0---0---|-------------|----| 
C#|-9-----------|-----2-4---4---4-|-9-----------|-x--| 
G#|-9---0--0--0-|-----------------|-9---0--0--0-|-x--| 
C#|-9---0--0--0-|-----------------|-9---0--0--0-|----| 

 16th notes... 
D#|---------------------------------|---------------------------------| 
A#|---------------------------------|---------------------------------| 
F#|-7-7-7-7-7-7-7-7-7-7-7-7-7-7-7-7-|-7-7-7-7-7-7-7-7-5-5-5-5-5-5-5-5-| 
C#|---------------------------------|---------------------------------| 
G#|---------------------------------|---------------------------------| 
C#|---------------------------------|---------------------------------| 

D#|-------------------------------------|-----------------------------| 
A#|-------------------------------------|-----------------------------| 
F#|-9-9-9-9-9-9-9-9-9-9-9-9-11-11-11-11-|-12-12-12-12-12-12-12-12-11^-| 
C#|-------------------------------------|-----------------------------| 
G#|-------------------------------------|-----------------------------| 
C#|-------------------------------------|-----------------------------| 

D#|-------------|-----------------|-------------|----| 
A#|-------------|-----------------|-------------|----| 
F#|-------------|-4p0-----0---0---|-------------|----| 
C#|-9-----------|-----2-4---4---4-|-9-----------|-x--| 
G#|-9---0--0--0-|-----------------|-9---0--0--0-|-x--| 
C#|-9---0--0--0-|-----------------|-9---0--0--0-|----| 

 16th notes... 
D#|---------------------------------|---------------------------------| 
A#|---------------------------------|---------------------------------| 
F#|-7-7-7-7-7-7-7-7-7-7-7-7-7-7-7-7-|-7-7-7-7-7-7-7-7-5-5-5-5-5-5-5-5-| 
C#|---------------------------------|---------------------------------| 
G#|---------------------------------|---------------------------------| 
C#|---------------------------------|---------------------------------| 

D#|-------------------------------------|-----------------------------| 
A#|-------------------------------------|-----------------------------| 
F#|-9-9-9-9-9-9-9-9-9-9-9-9-11-11-11-11-|-12-12-12-12-12-12-12-12-11^-| 
C#|-------------------------------------|-----------------------------| 
G#|-------------------------------------|-----------------------------| 
C#|-------------------------------------|-----------------------------| 

Chorus 
D#|-----------------|--------------------------|-----------------|---------------------------| 
A#|-----------------|--------------------------|-----------------|---------------------------| 
F#|-----------------|--------------------------|-----------------|---------------------------| 
C#|-5---5-5-5--5--5-|----4--4--4--4--4--4--x-x-|-5---5-5-5--5--5-|----4--4--4--4--4--4--4--x-| 
G#|-7---7-7-7--7--7-|-x--5--5--5--5--5--5--x-x-|-7---7-7-7--7--7-|-x--5--5--5--5--5--5--5--x-| 
C#|-----------------|--------------------------|-----------------|---------------------------| 

D#|-15p12----12----12----12-|----14----14----15----15-| 
A#|-------15----15----15----|-15----15----15----15----| 
F#|-------------------------|-------------------------| 
C#|-------------------------|-------------------------| 
G#|-------------------------|-------------------------| 
C#|-------------------------|-------------------------| 
                tri pl  et   tripl  et tri  pl  et 
D#|------------------------|-----------------------| 
A#|-------------15---------|-----------------------| 
F#|-------11h12-----12-----|-----------------------| 
C#|-12h14---------------14-|-17\16-----------------| 
G#|------------------------|--------17--14--12--10-| 
C#|------------------------|-----------------------| 

D#|-----------------|--------------------------|-----------------|---------------------------| 
A#|-----------------|--------------------------|-----------------|---------------------------| 
F#|-----------------|--------------------------|-----------------|---------------------------| 
C#|-5---5-5-5--5--5-|----4--4--4--4--4--4--x-x-|-5---5-5-5--5--5-|----4--4--4--4--4--4--4--x-| 
G#|-7---7-7-7--7--7-|-x--5--5--5--5--5--5--x-x-|-7---7-7-7--7--7-|-x--5--5--5--5--5--5--5--x-| 
C#|-----------------|--------------------------|-----------------|---------------------------| 

D#|-15p12----12----12----12-|----14----14----15----15-| 
A#|-------15----15----15----|-15----15----15----15----| 
F#|-------------------------|-------------------------| 
C#|-------------------------|-------------------------| 
G#|-------------------------|-------------------------| 
C#|-------------------------|-------------------------| 
                tri pl  et   tri pl  et  tri pl  et 
D#|------------------------|------------------------| 
A#|-------------15---------|------------------------| 
F#|-------11h12-----12-----|------------------------| 
C#|-12h14---------------14-|-17--16-----------------| 
G#|------------------------|---------17--14--12--10-| 
C#|------------------------|------------------------| 

Instrumental 
     2 bars                                 dive bomb 
D#|------------|-----------------|--------------------|       
A#|------------|-----------------|--------------------| 
F#|------------|-----------------|--------------------| 
C#|-2^---------|-----------------|-------------7\-----| 
G#|-2^---------|-2-2-2-2-2-2-2-2-|-2-2-2-2-2-2-5\-----| 
C#|-2^---------|-2-2-2-2-2-2-2-2-|-2-2-2-2-2-2--------| 

Bridge 
                                                       6x 
D#|-19-15----17----15-------|----15-14----17----15-19-| 
A#|-------17----17----19----|-------------------------| 
F#|----------------------16-|-16-------16----16-------| 
C#|-------------------------|-------------------------| 
G#|-------------------------|-------------------------| 
C#|-------------------------|-------------------------| 

D#|-----------------|-----------------|-----------------|-----------------| 
A#|-----------------|-----------------|-----------------|-----------------| 
F#|-----------------|-----------------|-----------------|-----------------| 
C#|-----5---5-----4-|-----4---4-5-5-5-|-----5---5-----4-|-----4---4-5-5-5-| 
G#|-2-2---2---2-2---|-2-2---2---------|-4-4---4---4-4---|-4-4---4---------| 
C#|-2-2---2---2-----|-2-----2---------|-4-4---4---4-4---|-4-4---4---------| 

D#|-----------------------------------|-------------------------|-------------------------| 
A#|-----------------|-----------------|-------------------------|-------------------------| 
F#|-7-------7-------|-7-------7-------|-12----------12----------|-12----------12----------| 
C#|-5-5-5-5-5-5-5-5-|-5-5-5-5-5-5-5-5-|-10-10-10-10-10-10-10-10-|-10-10-10-10-10-10-10-10-| 
G#|-5-5-5-5-5-5-5-5-|-5-5-5-5-5-5-5-5-|-10-10-10-10-10-10-10-10-|-10-10-10-10-10-10-10-10-| 
C#|-5-5-5-5-5-5-5-5-|-5-5-5-5-5-5-5-5-|-10-10-10-10-10-10-10-10-|-10-10-10-10-10-10-10-10-| 

D#|-----------------|-----------------|-----------------|-----------------| 
A#|-----------------|-----------------|-----------------|-----------------| 
F#|-----------------|-----------------|-----------------|-----------------| 
C#|-----5---5-----4-|-----4---4-5-5-5-|-----5---5-----4-|-----4---4-5-5-5-| 
G#|-2-2---2---2-2---|-2-2---2---------|-4-4---4---4-4---|-4-4---4---------| 
C#|-2-2---2---2-----|-2-----2---------|-4-4---4---4-4---|-4-4---4---------| 

D#|-----------------------------------|-------------------------|-------------------------| 
A#|-----------------|-----------------|-------------------------|-------------------------| 
F#|-7-------7-------|-7-------7-------|-12----------12----------|-12----------12----------| 
C#|-5-5-5-5-5-5-5-5-|-5-5-5-5-5-5-5-5-|-10-10-10-10-10-10-10-10-|-10-10-10-10-10-10-10-10-| 
G#|-5-5-5-5-5-5-5-5-|-5-5-5-5-5-5-5-5-|-10-10-10-10-10-10-10-10-|-10-10-10-10-10-10-10-10-| 
C#|-5-5-5-5-5-5-5-5-|-5-5-5-5-5-5-5-5-|-10-10-10-10-10-10-10-10-|-10-10-10-10-10-10-10-10-| 

Chorus 
D#|------------------------|--------------------------|-----------------|---------------------------| 
A#|------------------------|--------------------------|-----------------|---------------------------| 
F#|------------------------|--------------------------|-----------------|---------------------------| 
C#|-5--5-5-5--5-5--5--5--5-|----4--4--4--4--4--4--x-x-|-5---5-5-5--5--5-|----4--4--4--4--4--4--4--x-| 
G#|-7--7-7-7--7-7--7--7--7-|-x--5--5--5--5--5--5--x-x-|-7---7-7-7--7--7-|-x--5--5--5--5--5--5--5--x-| 
C#|------------------------|--------------------------|-----------------|---------------------------| 

D#|-15p12----12----12----12-|----14----14----15----15-| 
A#|-------15----15----15----|-15----15----15----15----| 
F#|-------------------------|-------------------------| 
C#|-------------------------|-------------------------| 
G#|-------------------------|-------------------------| 
C#|-------------------------|-------------------------| 
                tri pl  et   tripl  et tri  pl  et 
D#|------------------------|-----------------------| 
A#|-------------15---------|-----------------------| 
F#|-------11h12-----12-----|-----------------------| 
C#|-12h14---------------14-|-17\16-----------------| 
G#|------------------------|--------17--14--12--10-| 
C#|------------------------|-----------------------| 

D#|-----------------|--------------------------|-----------------|---------------------------| 
A#|-----------------|--------------------------|-----------------|---------------------------| 
F#|-----------------|--------------------------|-----------------|---------------------------| 
C#|-5---5-5-5--5--5-|----4--4--4--4--4--4--x-x-|-5---5-5-5--5--5-|----4--4--4--4--4--4--4--x-| 
G#|-7---7-7-7--7--7-|-x--5--5--5--5--5--5--x-x-|-7---7-7-7--7--7-|-x--5--5--5--5--5--5--5--x-| 
C#|-----------------|--------------------------|-----------------|---------------------------| 

D#|-15p12----12----12----12-|----14----14----15----15-| 
A#|-------15----15----15----|-15----15----15----15----| 
F#|-------------------------|-------------------------| 
C#|-------------------------|-------------------------| 
G#|-------------------------|-------------------------| 
C#|-------------------------|-------------------------| 
                tri pl  et   tri pl  et  tri pl  et 
D#|------------------------|------------------------| 
A#|-------------15---------|------------------------| 
F#|-------11h12-----12-----|------------------------| 
C#|-12h14---------------14-|-17--16-----------------| 
G#|------------------------|---------17--14--12--10-| 
C#|------------------------|------------------------| 

Outro 
D#|------| 
A#|-8^---| 
F#|-11^~-| 
C#|------| 
G#|------| 
C#|------| 


************************************ 

| x   Dead note 
| h   Hammer-on 
| p   Pull-off 
| \   Slide down 
| ~   Vibrato 
| ^   Let note ring 

************************************ 
  

top 5 | sleeping with sirens
top rock'n roll
Outras músicas do artista letras do(a) Sleeping With Sirens
2.
Iris
Top cifras »Top artistas »
Petaxxon Comunicação Online
Cifras.com.br - Melhor e mais completo site de cifras e tablaturas do Brasil
Mais de 1 milhão de acordes de músicas cadastradas desde 2003
As informações contidas no nosso site são colaborações de seus usuários e podem conter erros, sendo assim, não nos responsabilizamos sobre nenhuma destas.
close
menos
mais
close
Cor dos acordes:

Cor da letra:

 

save
close
close
 
redimensionar