Cifras e Tablaturas
Slow Hollows

Slow Hollows

Spirit Week

Cifras Cancelar Versão de Impressão
cifras

Slow Hollows - Spirit Week

fixar na tela  
Exibindo: vídeo-aula ver clipes redimensionar

Tom:

  
Intro 

Guitar I 
e|-9----------9---------------9----------9-----------------------------------| 
B|---7----7------7---7--7---7---7----7------7---7--7---7---------------------| 
G|------7---7------7------7--------7---7------7------7-----------------------| 
D|---------------------------------------------------------------------------| 
A|---------------------------------------------------------------------------| 
E|---------------------------------------------------------------------------| 

Guitar II 
e|---------------------------------------------------------------------------| 
B|---------------------------------------------------------------------------| 
G|---------------------------------------------------------------------------| 
D|---------------------------------------------------------------------------| 
A|---------------------------------------------------------------------------| 
E|---------------------------------------------------------------------------| 

Chorus 

Guitar I 
e|-10--10--10--10--10-10-9---------------------------------------------------| 
B|-------------------------9~---9--9--9--9--9--10-10-12---12-----------------| 
G|---11--11--11--11-----------11-11-11-11-11-11--9------11--11---------------| 
D|---------------------------------------------------------------------------| 
A|---------------------------------------------------------------------------| 
E|---------------------------------------------------------------------------| 

Guitar II 
e|---------------------------------------------------------------------------| 
B|---------------------------------------------------------------------------| 
G|---------------------------------------------------------------------------| 
D|-4-4--4-4--5-5-5--4--4-4-4--7-7--6-6--9-9-9--11-11-11-11-------------------| 
A|-5-5--4-4--5-5-5--4--4-4-4--7-7--6-6--9-9-9--11-11-11-11-------------------| 
E|-5-5--2-2--3-3-3--2--2-2-2--5-5--4-4--7-7-7--9--9--9--9--------------------| 

Guitar I 
e|-10--10--10--10--10-10-9---------------------------------------------------| 
B|-------------------------9~---9--9--9--9--9--10-10-12---12-----------------| 
G|---11--11--11--11-----------11-11-11-11-11-11--9------11-------------------| 
D|---------------------------------------------------------------------------| 
A|---------------------------------------------------------------------------| 
E|---------------------------------------------------------------------------| 

Guitar II 
e|---------------------------------------------------------------------------| 
B|---------------------------------------------------------------------------| 
G|---------------------------------------------------------------------------| 
D|-4-4--4-4--5-5-5--4--4-4-4--7-7--6-6--9-9-9--11-11-11-11-------------------| 
A|-5-5--4-4--5-5-5--4--4-4-4--7-7--6-6--9-9-9--11-11-11-11-------------------| 
E|-5-5--2-2--3-3-3--2--2-2-2--5-5--4-4--7-7-7--9--9--9--9--------------------| 

Verse I 

'I live a life alone, nothing is real, nobody's home' 

Guitar I 
e|---------------------------------------------------------------------------| 
B|-7-------------------------------7-----------------------------------------| 
G|-6-------------------------------6-----------------------------------------| 
D|-7-------------------------------7-----------------------------------------| 
A|-5-------------------------------6-----------------------------------------| 
E|---------------------------------------------------------------------------| 

Guitar II 
e|---------------------------------------------------------------------------| 
B|-7-------------------------------7-----------------------------------------| 
G|-6-------------------------------6-----------------------------------------| 
D|-7-------------------------------7-----------------------------------------| 
A|-5-------------------------------6-----------------------------------------| 
E|---------------------------------------------------------------------------| 

'Some things remain like stone, and never picking up the phone' 

Guitar I 
e|---------------------------------------------------------------------------| 
B|-7-------------------------------7-----------------------------------------| 
G|-6-------------------------------6-----------------------------------------| 
D|-7-------------------------------7-----------------------------------------| 
A|-5-------------------------------6-----------------------------------------| 
E|---------------------------------------------------------------------------| 

Guitar II 
e|---------------------------------------------------------------------------| 
B|-7-------------------------------7-----------------------------------------| 
G|-6-------------------------------6-----------------------------------------| 
D|-7-------------------------------7-----------------------------------------| 
A|-5-------------------------------6-----------------------------------------| 
E|---------------------------------------------------------------------------| 

'These walls are sick of me, got nothing left to offer, oh no' 

Guitar I 
e|---------------------------------------------------------------------------| 
B|------7---5h7--------7---5h7--------7---5h7--------7---5h7-----------------| 
G|----6---6-----6----6---6-----6----6---6-----6----6---6-----6---------------| 
D|-7--------------7--------------7--------------7--------------7-------------| 
A|---------------------------------------------------------------------------| 
E|---------------------------------------------------------------------------| 

Guitar II 
e|---------------------------------------------------------------------------| 
B|-7-------------------------------7-----------------------------------------| 
G|-6-------------------------------6-----------------------------------------| 
D|-7-------------------------------7-----------------------------------------| 
A|-5-------------------------------6-----------------------------------------| 
E|---------------------------------------------------------------------------| 

'Don't you want to think you're free? I'd rather dream, oh can't you see' 

Guitar I 
e|---------------------------------------------------------------------------| 
B|------7---5h7--------7---5h7--------7---5h7--------7---5h7-----------------| 
G|----6---6-----6----6---6-----6----6---6-----6----6---6---------------------| 
D|-7--------------7--------------7--------------7----------------------------| 
A|---------------------------------------------------------------------------| 
E|---------------------------------------------------------------------------| 

Guitar II 
e|---------------------------------------------------------------------------| 
B|-7-------------------------------7-----------------------------------------| 
G|-6-------------------------------6-----------------------------------------| 
D|-7-------------------------------7-----------------------------------------| 
A|-5-------------------------------6-----------------------------------------| 
E|---------------------------------------------------------------------------| 

Chorus 

Guitar I 
e|-10--10--10--10--10-10-9---------------------------------------------------| 
B|-------------------------9~---9--9--9--9--9--10-10-12---12-----------------| 
G|---11--11--11--11-----------11-11-11-11-11-11--9------11--11---------------| 
D|---------------------------------------------------------------------------| 
A|---------------------------------------------------------------------------| 
E|---------------------------------------------------------------------------| 

Guitar II 
e|---------------------------------------------------------------------------| 
B|---------------------------------------------------------------------------| 
G|---------------------------------------------------------------------------| 
D|-4-4--4-4--5-5-5--4--4-4-4--7-7--6-6--9-9-9--11-11-11-11-------------------| 
A|-5-5--4-4--5-5-5--4--4-4-4--7-7--6-6--9-9-9--11-11-11-11-------------------| 
E|-5-5--2-2--3-3-3--2--2-2-2--5-5--4-4--7-7-7--9--9--9--9--------------------| 

Guitar I 
e|-10--10--10--10--10-10-9---------------------------------------------------| 
B|-------------------------9~---9--9--9--9--9--10-10-12---12-----------------| 
G|---11--11--11--11-----------11-11-11-11-11-11--9------11-------------------| 
D|---------------------------------------------------------------------------| 
A|---------------------------------------------------------------------------| 
E|---------------------------------------------------------------------------| 

Guitar II 
e|---------------------------------------------------------------------------| 
B|---------------------------------------------------------------------------| 
G|---------------------------------------------------------------------------| 
D|-4-4--4-4--5-5-5--4--4-4-4--7-7--6-6--9-9-9--11-11-11-11-------------------| 
A|-5-5--4-4--5-5-5--4--4-4-4--7-7--6-6--9-9-9--11-11-11-11-------------------| 
E|-5-5--2-2--3-3-3--2--2-2-2--5-5--4-4--7-7-7--9--9--9--9--------------------| 

Bridge 

'Always' 

Guitar I 
e|---------------------------------------------------------------------------| 
B|---------------------------------------------------------------------------| 
G|---------------------------------------------------------------------------| 
D|----------------------------------------------4----4-----------------------| 
A|---------------------------------------------------------------------------| 
E|-10~----------------------------3~----------3----3---3---------------------| 

Guitar II 
e|---------------------------------------------------------------------------| 
B|---------------------------------------------------------------------------| 
G|-7------------------------------5------------------------------------------| 
D|-7------------------------------4------------------------------------------| 
A|-5------------------------------4------------------------------------------| 
E|--------------------------------3------------------------------------------| 

'Always, always' 

Guitar I 
e|---------------------------------------------------------------------------| 
B|---------------------------------------------------------------------------| 
G|---------------------------------------------------------------------------| 
D|-----------------11-----11--11----------------4--4-------------------------| 
A|----------------------------------------------x--x-------------------------| 
E|-10~----------------10----------3~----------3-3--3-------------------------| 

Guitar II 
e|---------------------------------------------------------------------------| 
B|---------------------------------------------------------------------------| 
G|-7------------------------------5------------------------------------------| 
D|-7------------------------------4------------------------------------------| 
A|-5------------------------------4------------------------------------------| 
E|--------------------------------3------------------------------------------| 

Verse II 

'I live a life alone, where nothing ever seems to grow' 

Guitar I 
e|---------------------------------------------------------------------------| 
B|------7---5h7--------7---5h7--------7---5h7--------7---5h7-----------------| 
G|----6---6-----6----6---6-----6----6---6-----6----6---6-----6---------------| 
D|-7--------------7--------------7--------------7--------------7-------------| 
A|---------------------------------------------------------------------------| 
E|---------------------------------------------------------------------------| 

Guitar II 
e|---------------------------------------------------------------------------| 
B|-7-------------------------------7-----------------------------------------| 
G|-6-------------------------------6-----------------------------------------| 
D|-7-------------------------------7-----------------------------------------| 
A|-5-------------------------------6-----------------------------------------| 
E|---------------------------------------------------------------------------| 

'This bed this floor await my head, how does it feel, nothing is real' 

Guitar I 
e|---------------------------------------------------------------------------| 
B|------7---5h7--------7---5h7--------7---5h7--------7---5h7-----------------| 
G|----6---6-----6----6---6-----6----6---6-----6----6---6---------------------| 
D|-7--------------7--------------7--------------7----------------------------| 
A|---------------------------------------------------------------------------| 
E|---------------------------------------------------------------------------| 

Guitar II 
e|---------------------------------------------------------------------------| 
B|-7-------------------------------7-----------------------------------------| 
G|-6-------------------------------6-----------------------------------------| 
D|-7-------------------------------7-----------------------------------------| 
A|-5-------------------------------6-----------------------------------------| 
E|---------------------------------------------------------------------------| 

Chorus 

Guitar I 
e|-10--10--10--10--10-10-9---------------------------------------------------| 
B|-------------------------9~---9--9--9--9--9--10-10-12---12-----------------| 
G|---11--11--11--11-----------11-11-11-11-11-11--9------11--11---------------| 
D|---------------------------------------------------------------------------| 
A|---------------------------------------------------------------------------| 
E|---------------------------------------------------------------------------| 

Guitar II 
e|---------------------------------------------------------------------------| 
B|---------------------------------------------------------------------------| 
G|---------------------------------------------------------------------------| 
D|-4-4--4-4--5-5-5--4--4-4-4--7-7--6-6--9-9-9--11-11-11-11-------------------| 
A|-5-5--4-4--5-5-5--4--4-4-4--7-7--6-6--9-9-9--11-11-11-11-------------------| 
E|-5-5--2-2--3-3-3--2--2-2-2--5-5--4-4--7-7-7--9--9--9--9--------------------| 

Guitar I 
e|-10--10--10--10--10-10-9---------------------------------------------------| 
B|-------------------------9~---9--9--9--9--9--10-10-12---12-----------------| 
G|---11--11--11--11-----------11-11-11-11-11-11--9------11-------------------| 
D|---------------------------------------------------------------------------| 
A|---------------------------------------------------------------------------| 
E|---------------------------------------------------------------------------| 

Guitar II 
e|---------------------------------------------------------------------------| 
B|---------------------------------------------------------------------------| 
G|---------------------------------------------------------------------------| 
D|-4-4--4-4--5-5-5--4--4-4-4--7-7--6-6--9-9-9--11-11-11-11-------------------| 
A|-5-5--4-4--5-5-5--4--4-4-4--7-7--6-6--9-9-9--11-11-11-11-------------------| 
E|-5-5--2-2--3-3-3--2--2-2-2--5-5--4-4--7-7-7--9--9--9--9--------------------| 

Guitar I 
e|-10--10--10--10--10-12-10--------------------------------------------------| 
B|--------------------------9~---9--9--9--9--9--10-10-12---12----------------| 
G|---11--11--11--11------------11-11-11-11-11-11--9------11--11--------------| 
D|---------------------------------------------------------------------------| 
A|---------------------------------------------------------------------------| 
E|---------------------------------------------------------------------------| 

Guitar II 
e|---------------------------------------------------------------------------| 
B|---------------------------------------------------------------------------| 
G|---------------------------------------------------------------------------| 
D|-4-4--4-4--5-5-5--4--4-4-4--7-7--6-6--9-9-9--11-11-11-11-------------------| 
A|-5-5--4-4--5-5-5--4--4-4-4--7-7--6-6--9-9-9--11-11-11-11-------------------| 
E|-5-5--2-2--3-3-3--2--2-2-2--5-5--4-4--7-7-7--9--9--9--9--------------------| 

Guitar I 
e|-10--10--10--10--10-10-9---------------------------------------------------| 
B|-------------------------9~---9--9--9--9--9--10-10-12---12-----------------| 
G|---11--11--11--11-----------11-11-11-11-11-11--9---------------------------| 
D|---------------------------------------------------------------------------| 
A|---------------------------------------------------------------------------| 
E|---------------------------------------------------------------------------| 

Guitar II 
e|---------------------------------------------------------------------------| 
B|---------------------------------------------------------------------------| 
G|---------------------------------------------------------------------------| 
D|-4-4--4-4--5-5-5--4--4-4-4--7-7--6-6--9-9-9--11-11-11-11-------------------| 
A|-5-5--4-4--5-5-5--4--4-4-4--7-7--6-6--9-9-9--11-11-11-11-------------------| 
E|-5-5--2-2--3-3-3--2--2-2-2--5-5--4-4--7-7-7--9--9--9--9--------------------| 

Outro 

'I guess we'll never know' 

Guitar I 
e|---------------------------------------------------------------------------| 
B|-----12-10---12------3------------2------------0---------------------------| 
G|---11------11------4---4---4----2---2---2----1---1---1---------------------| 
D|-12-------------5--------5---4--------4---2--------2-----------------------| 
A|---------------------------------------------------------------------------| 
E|---------------------------------------------------------------------------| 

Guitar II 
e|---------------------------------------------------------------------------| 
B|---------------------------------------------------------------------------| 
G|-7--7-7--7-7-7--4--4-4--4-4-4-----------------1--1-1--1-1-1----------------| 
D|-7--7-7--7-7-7--5--5-5--5-5-5--4--4-4--4-4-4--2--2-2--2-2-2----------------| 
A|-5--5-5--5-5-5--5--5-5--5-5-5--4--4-4--4-4-4--2--2-2--2-2-2----------------| 
E|----------------3--3-3--3-3-3--2--2-2--2-2-2--0--0-0--0-0-0----------------| 

'I guess we'll never know' 

Guitar I 
e|---------------------------------------------------------------------------| 
B|-----12-10---12------3------------2------------0---------------------------| 
G|---11------11------4---4---4----2---2---2----1---1---1---------------------| 
D|-12-------------5--------5---4--------4---2--------2-----------------------| 
A|---------------------------------------------------------------------------| 
E|---------------------------------------------------------------------------| 

Guitar II 
e|---------------------------------------------------------------------------| 
B|---------------------------------------------------------------------------| 
G|-7--7-7--7-7-7--4--4-4--4-4-4-----------------1--1-1--1-1-1----------------| 
D|-7--7-7--7-7-7--5--5-5--5-5-5--4--4-4--4-4-4--2--2-2--2-2-2----------------| 
A|-5--5-5--5-5-5--5--5-5--5-5-5--4--4-4--4-4-4--2--2-2--2-2-2----------------| 
E|----------------3--3-3--3-3-3--2--2-2--2-2-2--0--0-0--0-0-0----------------| 

'I guess we'll never know' 

Guitar I 
e|---------------------------------------------------------------------------| 
B|-----12-10---12------3------------2------------0---------------------------| 
G|---11------11------4---4---4----2---2---2----1---1---1---------------------| 
D|-12-------------5--------5---4--------4---2--------2-----------------------| 
A|---------------------------------------------------------------------------| 
E|---------------------------------------------------------------------------| 

Guitar II 
e|---------------------------------------------------------------------------| 
B|---------------------------------------------------------------------------| 
G|-7--7-7--7-7-7--4--4-4--4-4-4-----------------1--1-1--1-1-1----------------| 
D|-7--7-7--7-7-7--5--5-5--5-5-5--4--4-4--4-4-4--2--2-2--2-2-2----------------| 
A|-5--5-5--5-5-5--5--5-5--5-5-5--4--4-4--4-4-4--2--2-2--2-2-2----------------| 
E|----------------3--3-3--3-3-3--2--2-2--2-2-2--0--0-0--0-0-0----------------| 

'I guess we'll never know' 

Guitar I 
e|---------------------------------------------------------------------------| 
B|-----12-10---12------3------------2----------------------------------------| 
G|---11------11------4---4---4----2---2---2-----13-13-13-13-13-13-13---------| 
D|-12-------------5--------5---4--------4---2---14-14-14-14-14-14-14---------| 
A|----------------------------------------------14-14-14-14-14-14-14---------| 
E|----------------------------------------------12-12-12-12-12-12-12---------| 

Guitar II 
e|---------------------------------------------------------------------------| 
B|---------------------------------------------------------------------------| 
G|-7--7-7--7-7-7--4--4-4--4-4-4-----------------1-1-1-1-1-1-1----------------| 
D|-7--7-7--7-7-7--5--5-5--5-5-5--4--4-4--4-4-4--2-2-2-2-2-2-2----------------| 
A|-5--5-5--5-5-5--5--5-5--5-5-5--4--4-4--4-4-4--2-2-2-2-2-2-2----------------| 
E|----------------3--3-3--3-3-3--2--2-2--2-2-2--0-0-0-0-0-0-0----------------| 

************************************ 

| x   Dead note 
| h   Hammer-on 
| ~   Vibrato 

************************************ 
  

top 5 | slow hollows
top rock'n roll
Outras músicas do artista letras do(a) Slow Hollows
Top cifras »Top artistas »
Petaxxon Comunicação Online
Cifras.com.br - Melhor e mais completo site de cifras e tablaturas do Brasil
Mais de 1 milhão de acordes de músicas cadastradas desde 2003
As informações contidas no nosso site são colaborações de seus usuários e podem conter erros, sendo assim, não nos responsabilizamos sobre nenhuma destas.
close
menos
mais
close
Cor dos acordes:

Cor da letra:

 

save
close
close
 
redimensionar