Cifras e Tablaturas
Small Town Heroes

Small Town Heroes

Sixth Street

Cifras Cancelar Versão de Impressão
cifras

Small Town Heroes - Sixth Street

fixar na tela  
Exibindo: vídeo-aula ver clipes redimensionar

Tom:

  
Intro 

PM-------------------------------------------------------------| 
e|----------------------------------------------------------------| 
B|----------------------------------------------------------------| 
G|----------------------------------------------------------------| 
D|--------------------------------7-7-7-7-7-7-7-7-----------------| 
A|9-9-9-9-9-9-9-9-5-5-5-5-5-5-5-5-5-5-5-5-5-5-5-5-7-7-7-7-7-7-7-7-| 
d|9-9-9-9-9-9-9-9-5-5-5-5-5-5-5-5-----------------7-7-7-7-7-7-7-7-| 

PM----------------------------------------------------------| 
e|--------------------------------------------------------------| 
B|--------------------------------------------------------------| 
G|--------------------------------------------------------------| 
D|--------------------------------7-7-7-7-7-7-7-7-----------x-x-| 
A|9-9-9-9-9-9-9-9-5-5-5-5-5-5-5-5-5-5-5-5-5-5-5-5-7-7-7-7-7-x-x-| 
d|9-9-9-9-9-9-9-9-5-5-5-5-5-5-5-5-----------------7-7-7-7-7-x-x-| 

e|---------------------------------------------------------| 
B|---------------------------------------------------------| 
G|-----------------------------7--7-7--7-7-7--7-7-7--7-7-7-| 
D|9--9-9--9-9-9--5-5-5-5-5-5-5-7--7-7--7-7-7--7-7-7--7-7-7-| 
A|9--9-9--9-9-9--5-5-5-5-5-5-5-5--5-5--5-5-5--5-5-5--5-5-5-| 
d|9--9-9--9-9-9--5-5-5-5-5-5-5-----------------------------| 

e|----------------------------------------------------------| 
B|----------------------------------------------------------| 
G|----------------------------------------------------------| 
D|9--9-9--9-9-9--5-5-5-5-5-5-5-7--7-7--7-7-7--7-7-8-8-8-8-8-| 
A|9--9-9--9-9-9--5-5-5-5-5-5-5-7--7-7--7-7-7--7-7-9-9-9-9-9-| 
d|9--9-9--9-9-9--5-5-5-5-5-5-5-7--7-7--7-7-7--7-7-8-8-8-8-8-| 


e|---------------------------------------------------------| 
B|---------------------------------------------------------| 
G|-----------------------------7--7-7--7-7-7--7-7-7--7-7-7-| 
D|9--9-9--9-9-9--5-5-5-5-5-5-5-7--7-7--7-7-7--7-7-7--7-7-7-| 
A|9--9-9--9-9-9--5-5-5-5-5-5-5-5--5-5--5-5-5--5-5-5--5-5-5-| 
d|9--9-9--9-9-9--5-5-5-5-5-5-5-----------------------------| 

e|----------------------------------------------------------| 
B|----------------------------------------------------------| 
G|----------------------------------------------------------| 
D|9--9-9--9-9-9--5-5-5-5-5-5-5-7--7-7--7-7-7--7-7-8-8-8-8-8-| 
A|9--9-9--9-9-9--5-5-5-5-5-5-5-7--7-7--7-7-7--7-7-9-9-9-9-9-| 
d|9--9-9--9-9-9--5-5-5-5-5-5-5-7--7-7--7-7-7--7-7-8-8-8-8-8-| 

PM---------------------------------| 
e|----------------------------------| 
B|----------------------------------| 
G|----------------------------------| 
D|9-9-9-9-9-9-9-9-9-9-9-9-9-9-9-9-9-| 
A|9-9-9-9-9-9-9-9-9-9-9-9-9-9-9-9-9-| 
d|9-9-9-9-9-9-9-9-9-9-9-9-9-9-9-9-9-| 


verse 1 

PM--------------------------------------------------------------| 
e|----------------------------------------------------------------| 
B|----------------------------------------------------------------| 
G|----------------------------------------------------------------| 
D|--------------------------------7-7-7-7-7-7-7-7-----------------| x4 
A|9-9-9-9-9-9-9-9-5-5-5-5-5-5-5-5-5-5-5-5-5-5-5-5-4-4-4-4-4-4-4-4-| 
d|9-9-9-9-9-9-9-9-5-5-5-5-5-5-5-5-----------------4-4-4-4-4-4-4-4-| 


Chorus 

e|---------------------------------------------------------| 
B|---------------------------------------------------------| 
G|-----------------------------7--7-7--7-7-7--7-7-7--7-7-7-| 
D|9--9-9--9-9-9-5--5-5-5-5-5-5-7--7-7--7-7-7--7-7-7--7-7-7-| 
A|9--9-9--9-9-9-5--5-5-5-5-5-5-5--5-5--5-5-5--5-5-5--5-5-5-| 
E|9--9-9--9-9-9-5--5-5-5-5-5-5-----------------------------| 

e|----------------------------------------------------------| 
B|----------------------------------------------------------| 
G|----------------------------------------------------------| 
D|9--9-9--9-9-9--5-5-5-5-5-5-5-7--7-7--7-7-7--7-7-8-8-8-8-8-| 
A|9--9-9--9-9-9--5-5-5-5-5-5-5-7--7-7--7-7-7--7-7-9-9-9-9-9-| 
d|9--9-9--9-9-9--5-5-5-5-5-5-5-7--7-7--7-7-7--7-7-8-8-8-8-8-| 

e|---------------------------------------------------------| 
B|---------------------------------------------------------| 
G|-----------------------------7--7-7--7-7-7--7-7-7--7-7-7-| 
D|9--9-9--9-9-9-5--5-5-5-5-5-5-7--7-7--7-7-7--7-7-7--7-7-7-| 
A|9--9-9--9-9-9-5--5-5-5-5-5-5-5--5-5--5-5-5--5-5-5--5-5-5-| 
E|9--9-9--9-9-9-5--5-5-5-5-5-5-----------------------------| 

e|----------------------------------------------------------| 
B|----------------------------------------------------------| 
G|----------------------------------------------------------| 
D|9--9-9--9-9-9--5-5-5-5-5-5-5-7--7-7--7-7-7--7-7-8-8-8-8-8-| 
A|9--9-9--9-9-9--5-5-5-5-5-5-5-7--7-7--7-7-7--7-7-9-9-9-9-9-| 
d|9--9-9--9-9-9--5-5-5-5-5-5-5-7--7-7--7-7-7--7-7-8-8-8-8-8-| 


verse 2 

PM--------------------------------| 
e|----------------------------------| 
B|----------------------------------| 
G|----------------------------------| 
D|9-9-9-9-9-9-9-9-9-9-9-9-9-9-9-9-9-| 
A|9-9-9-9-9-9-9-9-9-9-9-9-9-9-9-9-9-| 
d|9-9-9-9-9-9-9-9-9-9-9-9-9-9-9-9-9-| 

PM--------------------------------------------------------------| 
e|----------------------------------------------------------------| 
B|----------------------------------------------------------------| 
G|----------------------------------------------------------------| 
D|--------------------------------7-7-7-7-7-7-7-7-----------------| x4 
A|9-9-9-9-9-9-9-9-5-5-5-5-5-5-5-5-5-5-5-5-5-5-5-5-4-4-4-4-4-4-4-4-| 
d|9-9-9-9-9-9-9-9-5-5-5-5-5-5-5-5-----------------4-4-4-4-4-4-4-4-| 


Chorus 

e|---------------------------------------------------------| 
B|---------------------------------------------------------| 
G|-----------------------------7--7-7--7-7-7--7-7-7--7-7-7-| 
D|9--9-9--9-9-9-5--5-5-5-5-5-5-7--7-7--7-7-7--7-7-7--7-7-7-| 
A|9--9-9--9-9-9-5--5-5-5-5-5-5-5--5-5--5-5-5--5-5-5--5-5-5-| 
E|9--9-9--9-9-9-5--5-5-5-5-5-5-----------------------------| 

e|---------------------------------------------------------| 
B|---------------------------------------------------------| 
G|---------------------------------------------------------| 
D|9--9-9--9-9-9-5-5-5-5-5-5-5-7--7-7--7-7-7--7-7-8-8-8-8-8-| 
A|9--9-9--9-9-9-5-5-5-5-5-5-5-7--7-7--7-7-7--7-7-9-9-9-9-9-| 
d|9--9-9--9-9-9-5-5-5-5-5-5-5-7--7-7--7-7-7--7-7-8-8-8-8-8-| 

e|---------------------------------------------------------| 
B|---------------------------------------------------------| 
G|-----------------------------7--7-7--7-7-7--7-7-7--7-7-7-| 
D|9--9-9--9-9-9-5--5-5-5-5-5-5-7--7-7--7-7-7--7-7-7--7-7-7-| 
A|9--9-9--9-9-9-5--5-5-5-5-5-5-5--5-5--5-5-5--5-5-5--5-5-5-| 
E|9--9-9--9-9-9-5--5-5-5-5-5-5-----------------------------| 

e|----------------------------------------------------------| 
B|----------------------------------------------------------| 
G|----------------------------------------------------------| 
D|9--9-9--9-9-9--5-5-5-5-5-5-5-7--7-7--7-7-7--7-7-8-8-8-8-8-| 
A|9--9-9--9-9-9--5-5-5-5-5-5-5-7--7-7--7-7-7--7-7-9-9-9-9-9-| 
d|9--9-9--9-9-9--5-5-5-5-5-5-5-7--7-7--7-7-7--7-7-8-8-8-8-8-| 


Bridge 

e|------------------------------------------------------------| 
B|------------------------------------------------------------| 
G|------------------------------------------------------------| 
D|5--5-5-5-5-5-5-7--7-7-7-7-7-7-7-9-9-9-9--9-9--9-9--9-9-9-9--| 
A|5--5-5-5-5-5-5-7--7-7-7-7-7-7-7-9-9-9-9--9-9--9-9--9-9-9-9--| 
d|5--5-5-5-5-5-5-7--7-7-7-7-7-7-7-9-9-9-9--9-9--9-9--9-9-9-9--| 

e|-----------------------------------------------------------| 
B|-----------------------------------------------------------| 
G|------------------------------6-6-6-6--6-6--6-6--6-6-6-6-6-| 
D|5--5-5-5-5-5-7--7-7-7-7-7-7-7-7-7-7-7--7-7--7-7--7-7-7-7-7-| 
A|5--5-5-5-5-5-7--7-7-7-7-7-7-7-5-5-5-5--5-5--5-5--5-5-5-5-5-| 
d|5--5-5-5-5-5-7--7-7-7-7-7-7-7------------------------------| 

e|-----------------------------------------------------------| 
B|-----------------------------------------------------------| 
G|-----------------------------------------------------------| 
D|5--5-5-5-5-5-7--7-7-7-7-7-7-7-4-4-4-4--4-4--4-4--4-4-4-4-4-| 
A|5--5-5-5-5-5-7--7-7-7-7-7-7-7-4-4-4-4--4-4--4-4--4-4-4-4-4-| 
d|5--5-5-5-5-5-7--7-7-7-7-7-7-7-4-4-4-4--4-4--4-4--4-4-4-4-4-| 

e|-----------------------------------------------------------| 
B|-----------------------------------------------------------| 
G|-----------------------------------------------------------| 
D|5-5-5-5-5-5-5--5-5-5-5-5-5-5-7-7-7-7-7-7-7-7-7-7-8-8-8-8-8-| 
A|5-5-5-5-5-5-5--5-5-5-5-5-5-5-7-7-7-7-7-7-7-7-7-7-9-9-9-9-9-| 
d|5-5-5-5-5-5-5--5-5-5-5-5-5-5-7-7-7-7-7-7-7-7-7-7-8-8-8-8-8-| 


Guitar Solo 

e|---------------------------------------------------------| 
B|---------------------------------------------------------| 
G|-----------------------------7--7-7--7-7-7--7-7-7--7-7-7-| 
D|9--9-9--9-9-9-5--5-5-5-5-5-5-7--7-7--7-7-7--7-7-7--7-7-7-| 
A|9--9-9--9-9-9-5--5-5-5-5-5-5-5--5-5--5-5-5--5-5-5--5-5-5-| 
E|9--9-9--9-9-9-5--5-5-5-5-5-5-----------------------------| 

e|---------------------------------------------------------| 
B|---------------------------------------------------------| 
G|---------------------------------------------------------| 
D|9--9-9--9-9-9-5-5-5-5-5-5-5-7--7-7--7-7-7--7-7-8-8-8-8-8-| 
A|9--9-9--9-9-9-5-5-5-5-5-5-5-7--7-7--7-7-7--7-7-9-9-9-9-9-| 
d|9--9-9--9-9-9-5-5-5-5-5-5-5-7--7-7--7-7-7--7-7-8-8-8-8-8-| 

e|---------------------------------------------------------| 
B|---------------------------------------------------------| 
G|-----------------------------7--7-7--7-7-7--7-7-7--7-7-7-| 
D|9--9-9--9-9-9-5--5-5-5-5-5-5-7--7-7--7-7-7--7-7-7--7-7-7-| 
A|9--9-9--9-9-9-5--5-5-5-5-5-5-5--5-5--5-5-5--5-5-5--5-5-5-| 
E|9--9-9--9-9-9-5--5-5-5-5-5-5-----------------------------| 

e|----------------------------------------------------------| 
B|----------------------------------------------------------| 
G|----------------------------------------------------------| 
D|9--9-9--9-9-9--5-5-5-5-5-5-5-7--7-7--7-7-7--7-7-8-8-8-8-8-| 
A|9--9-9--9-9-9--5-5-5-5-5-5-5-7--7-7--7-7-7--7-7-9-9-9-9-9-| 
d|9--9-9--9-9-9--5-5-5-5-5-5-5-7--7-7--7-7-7--7-7-8-8-8-8-8-| 


Final Chorus 

e|-----------------------------------------------| 
B|-----------------------------------------------| 
G|-----------------7-7-7-7-7-7-7-7-7-7-7-7-7-7-7-| 
D|9----------------7-7-7-7-7-7-7-7-7-7-7-7-7-7-7-| 
A|9----------------5-5-5-5-5-5-5-5-5-5-5-5-5-5-5-| 
d|9----------------------------------------------| 

e|---------------------------------------------------------| 
B|---------------------------------------------------------| 
G|---------------------------------------------------------| 
D|9--9-9--9-9-9-5-5-5-5-5-5-5-7--7-7--7-7-7--7-7-8-8-8-8-8-| 
A|9--9-9--9-9-9-5-5-5-5-5-5-5-7--7-7--7-7-7--7-7-9-9-9-9-9-| 
d|9--9-9--9-9-9-5-5-5-5-5-5-5-7--7-7--7-7-7--7-7-8-8-8-8-8-| 

e|---------------------------------------------------------| 
B|---------------------------------------------------------| 
G|-----------------------------7--7-7--7-7-7--7-7-7--7-7-7-| 
D|9--9-9--9-9-9-5--5-5-5-5-5-5-7--7-7--7-7-7--7-7-7--7-7-7-| 
A|9--9-9--9-9-9-5--5-5-5-5-5-5-5--5-5--5-5-5--5-5-5--5-5-5-| 
E|9--9-9--9-9-9-5--5-5-5-5-5-5-----------------------------| 

e|----------------------------------------------------------| 
B|----------------------------------------------------------| 
G|----------------------------------------------------------| 
D|9--9-9--9-9-9--5-5-5-5-5-5-5-7--7-7--7-7-7--7-7-8-8-8-8-8-| 
A|9--9-9--9-9-9--5-5-5-5-5-5-5-7--7-7--7-7-7--7-7-9-9-9-9-9-| 
d|9--9-9--9-9-9--5-5-5-5-5-5-5-7--7-7--7-7-7--7-7-8-8-8-8-8-| 


************************************ 
| x  Dead note 
| PM Palm mute 
************************************ 
  

top 5 | small town heroes
top rock'n roll
Outras músicas do artista letras do(a) Small Town Heroes
Top cifras »Top artistas »
Petaxxon Comunicação Online
Cifras.com.br - Melhor e mais completo site de cifras e tablaturas do Brasil
Mais de 1 milhão de acordes de músicas cadastradas desde 2003
As informações contidas no nosso site são colaborações de seus usuários e podem conter erros, sendo assim, não nos responsabilizamos sobre nenhuma destas.
close
menos
mais
close
Cor dos acordes:

Cor da letra:

 

save
close
close
 
redimensionar