Cifras e Tablaturas
Soccer Mommy

Soccer Mommy

Death By Chocolate

Cifras Cancelar Versão de Impressão

Soccer Mommy - Death By Chocolate

Tom:

  			
Intro 
e|---------------------------------------------------| 
B|---6--6--6---------------------5-5-5-5-5-5-5-5-----| 
G|---7--8--7---------------------6-6-6-6-7-7-7-7-----| 
D|---8--8--8---------------------7-7-7-7-7-7-7-7-----|   x4 
A|-------------9--11-7~---7--7-7---------------------| 
E|-------------7--7--5~---5--5-5---------------------| 

Verse  
e|----------------------------------------------------| 
B|---6--6--6----------------------5-5-5-5-5-5-5-5-----| 
G|---7--8--7----------------------6-6-6-6-7-7-7-7-----| 
D|---8--8--8----------------------7-7-7-7-7-7-7-7-----|   x4 
A|--------------9--11-7~---7--7-7---------------------| 
E|--------------7--7--5~---5--5-5---------------------| 

e|---------------------------------------------------| 
B|---6--6-------------------------5-5-5-5-5-5-5-5----| 
G|---7--8-------------------------6-6-6-6-7-7-7-7----| 
D|---8--8-------------------------7-7-7-7-7-7-7-7----|   x3 
A|--------------9--11-7~---7--7-7--------------------| 
E|--------------7--7--5~---5--5-5--------------------| 

e|----------------------------------------------| 
B|---6--6--6----------------------5-5-x-x-x-----| 
G|---7--8--7----------------------6-6-x-x-x-----| 
D|---8--8--8----------------------7-7-x-x-x-----|  x1 
A|--------------9--11-7----7--7-7---------------| 
E|--------------7--7--5----5--5-5---------------| 

e|---------------------------------------------------| 
B|---6--6--6----------------------5-5-5-5-5-5-5-5----| 
G|---7--8--7----------------------6-6-6-6-7-7-7-7----| 
D|---8--8--8----------------------7-7-7-7-7-7-7-7----|   x4 
A|--------------9--11-7~---7--7-7--------------------| 
E|--------------7--7--5~---5--5-5--------------------| 

Chorus 
e|------------------------------------------------| 
B|---5-5-5-5-5-5-5-5-5----------------------------| 
G|---6-6-6-6-6-6-6-6-6---6-6-6-6-6-6-6-6-6--------| 
D|---7-7-7-7-7-7-7-7-7---7-7-7-7-7-7-7-7-7--------| 
A|-----------------------5-5-5-5-5-5-5-5-5--------| 
E|------------------------------------------------| 

e|------------------------------------------------------------| 
B|--------------------5-5-5-5-5-5-5-5-5---5-5-5-5-5-5-5-5-5---| 
G|---9--9--9--9--9----6-6-6-6-6-6-6-6-6---7-7-7-7-7-7-7-7-7---| 
D|---11-11-11-11-11---7-7-7-7-7-7-7-7-7---7-7-7-7-7-7-7-7-7---| 
A|---7--7--7--7--7--------------------------------------------| 
E|------------------------------------------------------------| 

e|------------------------------------------------| 
B|---5-5-5-5-5-5-5-5-5----------------------------| 
G|---6-6-6-6-6-6-6-6-6---6-6-6-6-6-6-6-6-6--------| 
D|---7-7-7-7-7-7-7-7-7---7-7-7-7-7-7-7-7-7--------| 
A|-----------------------5-5-5-5-5-5-5-5-5--------| 
E|------------------------------------------------| 

e|------------------------------------------------------------| 
B|--------------------5-5-5-5-5-5-5-5-5---5-5-5-5-5-5-5-5-5---| 
G|---9--9--9--9--9----6-6-6-6-6-6-6-6-6---7-7-7-7-7-7-7-7-7---| 
D|---11-11-11-11-11---7-7-7-7-7-7-7-7-7---7-7-7-7-7-7-7-7-7---| 
A|---7--7--7--7--7--------------------------------------------| 
E|------------------------------------------------------------| 

verse 2 
e|----------------------------------------------------| 
B|---6--6--6----------------------5-5-5-5-5-5-5-5-----| 
G|---7--8--7----------------------6-6-6-6-7-7-7-7-----| 
D|---8--8--8----------------------7-7-7-7-7-7-7-7-----|   x4 
A|--------------9--11-7~---7--7-7---------------------| 
E|--------------7--7--5~---5--5-5---------------------| 

e|---------------------------------------------------| 
B|---6--6-------------------------5-5-5-5-5-5-5-5----| 
G|---7--8-------------------------6-6-6-6-7-7-7-7----| 
D|---8--8-------------------------7-7-7-7-7-7-7-7----|   x3 
A|--------------9--11-7~---7--7-7--------------------| 
E|--------------7--7--5~---5--5-5--------------------| 

e|----------------------------------------------| 
B|---6--6--6----------------------5-5-x-x-x-----| 
G|---7--8--7----------------------6-6-x-x-x-----| 
D|---8--8--8----------------------7-7-x-x-x-----|  x1 
A|--------------9--11-7----7--7-7---------------| 
E|--------------7--7--5----5--5-5---------------| 

e|---------------------------------------------------| 
B|---6--6--6----------------------5-5-5-5-5-5-5-5----| 
G|---7--8--7----------------------6-6-6-6-7-7-7-7----| 
D|---8--8--8----------------------7-7-7-7-7-7-7-7----|   x4 
A|--------------9--11-7~---7--7-7--------------------| 
E|--------------7--7--5~---5--5-5--------------------| 

Chorus 
e|------------------------------------------------| 
B|---5-5-5-5-5-5-5-5-5----------------------------| 
G|---6-6-6-6-6-6-6-6-6---6-6-6-6-6-6-6-6-6--------| 
D|---7-7-7-7-7-7-7-7-7---7-7-7-7-7-7-7-7-7--------| 
A|-----------------------5-5-5-5-5-5-5-5-5--------| 
E|------------------------------------------------| 

e|------------------------------------------------------------| 
B|--------------------5-5-5-5-5-5-5-5-5---5-5-5-5-5-5-5-5-5---| 
G|---9--9--9--9--9----6-6-6-6-6-6-6-6-6---7-7-7-7-7-7-7-7-7---| 
D|---11-11-11-11-11---7-7-7-7-7-7-7-7-7---7-7-7-7-7-7-7-7-7---| 
A|---7--7--7--7--7--------------------------------------------| 
E|------------------------------------------------------------| 

e|------------------------------------------------| 
B|---5-5-5-5-5-5-5-5-5----------------------------| 
G|---6-6-6-6-6-6-6-6-6---6-6-6-6-6-6-6-6-6--------| 
D|---7-7-7-7-7-7-7-7-7---7-7-7-7-7-7-7-7-7--------| 
A|-----------------------5-5-5-5-5-5-5-5-5--------| 
E|------------------------------------------------| 

e|------------------------------------------------------------| 
B|--------------------5-5-5-5-5-5-5-5-5---5-5-5-5-5-5-5-5-5---| 
G|---9--9--9--9--9----6-6-6-6-6-6-6-6-6---7-7-7-7-7-7-7-7-7---| 
D|---11-11-11-11-11---7-7-7-7-7-7-7-7-7---7-7-7-7-7-7-7-7-7---| 
A|---7--7--7--7--7--------------------------------------------| 
E|------------------------------------------------------------| 

Outro 
e|---------------------------------------------------| 
B|---6--6--(6)--------------------5-5-5-5-5-5-5-5----| 
G|---7--8--(7)--------------------6-6-6-6-7-7-7-7----| 
D|---8--8--(8)--------------------7-7-7-7-7-7-7-7----|   x2 
A|--------------9--11-7~---7--7-7--------------------| 
E|--------------7--7--5~---5--5-5--------------------| 

e|--------| 
B|--------| 
G|---6----| 
D|---7----| 
A|---x----| 
E|---5----| 

Lyrics 
Do you think it's sweet I'm nervous talking to you 
Or am i just a freak? 
Sat by me on the bus on the way back to school 
I wish that i was cool like you 

I guess it's kind of me - i never try 
You drove me home last week - i would've died for a kiss 
You smell like cigarettes and how chocolate tastes 
It makes me wanna die but i guess i can wait 

I wanna kill myself, I'm gonna go to hell 
I'm gonna kill myself, i wanna go to hell 
And he's the way I'm gonna do it 

Something in my veins is gnawing at me 
I wanna kiss yr face 
You smell like cigarettes and how chocolate tastes 
It makes me wanna die but i guess i can wait 

I wanna kill myself, I'm gonna go to hell 
I'm gonna kill myself, i wanna go to hell 
And he's the way I'm gonna do it 



************************************ 

| ~    Vibrato 
| x    Dead note 
| (n)  Ghost note 

************************************ 
    	
fixar
fixar inscrever-se

enviado porenviado por: marcnagel
cifra enviadaCorrigida por: sem correções
logo top cifrasComente
ico música do artistaMúsicas deste artista
ico curtiuCurtiu?
ico destaqueDestaque
Petaxxon Comunicação Online

Cifras.com.br - Melhor e mais completo site de cifras e tablaturas do Brasil Mais de 1 milhão de acordes de músicas cadastradas desde 2003
As informações contidas no nosso site são colaborações de seus usuários e podem conter erros, sendo assim, não nos responsabilizamos sobre nenhuma destas.

close
menos
mais
close
Cor dos acordes:

Cor da letra:

close
Alinhar acordes a direita Alinhar acordes a esquerda Alinhar acordes em baixo Alinhar acordes no topo
close
  Mostrar todos os acordes Esconder acordes muito fáceis Esconder acordes fáceis Esconder acordes intermediários
redimensionar
glossário