Cifras e Tablaturas
Soko

Soko

Sweet Sound Of Ignorance

Cifras Cancelar Versão de Impressão
cifras

Soko - Sweet Sound Of Ignorance

fixar na tela  
Exibindo: vídeo-aula ver clipes redimensionar
  
Intro 
e|----------------| 
B|----------------| 
G|--6-------------| 
D|-----9---7------| 
A|------------9---| 
E|----------------| 

Verse A 
e|-----------10-------------9------------7-----------7------| 
B|-------10------10------9-----9------7-----7-----7-----7---| 
G|---11---------------9------------7-----------7------------| 
D|----------------------------------------------------------| 
A|----------------------------------------------------------| 
E|----------------------------------------------------------| 

Verse B 
e|-----------10-------------9------------7-----------5h7p5---| 
B|-------10------10------9-----9------7-----7-----7--7-------| 
G|---11---------------9------------7-----------7-------------| 
D|-----------------------------------------------------------| 
A|-----------------------------------------------------------| 
E|-----------------------------------------------------------| 

Verse C 
e|-----------10-------------9------------7-----------9--(7)--| 
B|-------10------10------9-----9------7-----7-----7----------| 
G|---11---------------9------------7-----------7-------------| 
D|-----------------------------------------------------------| 
A|-----------------------------------------------------------| 
E|-----------------------------------------------------------| 

Verse D 
e|-----------10-------------9------7-----(9--7--9--7--9)--| 
B|-------10------10------9-----9---7----------------------| 
G|---11---------------9------------7----------------------| 
D|--------------------------------------------------------| 
A|--------------------------------------------------------| 
E|--------------------------------------------------------| 

Solo 
e|----------------------------------------| 
B|----------------------------------------| 
G|---6------------------------------------| 
D|----------9---------7----9--6----7--9---| 
A|-----------------9----------------------| 
E|----------------------------------------| 


************************************ 

| (n) Variation 
| h   Hammer-on 
| p   Pull-off 
| /   Slide up 
| \   Slide down 

************************************ 
  

cifra enviadasem correções
enviado porenviada por:VsWorld
top 5 | soko
top pop music
Outras músicas do artista letras do(a) Soko
Top cifras »Top artistas »
Petaxxon Comunicação Online
Cifras.com.br - Melhor e mais completo site de cifras e tablaturas do Brasil
Mais de 1 milhão de acordes de músicas cadastradas desde 2003
As informações contidas no nosso site são colaborações de seus usuários e podem conter erros, sendo assim, não nos responsabilizamos sobre nenhuma destas.
close
menos
mais
close
Cor dos acordes:

Cor da letra:

 

save
close
close
 
redimensionar