Cifras e Tablaturas
Sonny Rollins

Sonny Rollins

Valse Hot

Cifras Cancelar Versão de Impressão
cifras

Sonny Rollins - Valse Hot

fixar na tela  
Exibindo: vídeo-aula ver clipes redimensionar
  
Intro 

  Bbm7    Eb7     Abmaj7   Bbm7    Eb7     Abmaj7   Bbm7    Eb7     Abmaj7   
e|------------------------|------------------------|------------------------|------------------------| 
B|------------------------|------------------------|------------------------|------------------------| 
G|----8-------6---5-------|----8-------6---5-------|----8-------6---5-------|------------------------| 
D|8-------8---------------|8-------8---------------|8-------8---------------|------------------------| 
A|------------------------|------------------------|------------------------|------------------------| 
E|------------------------|------------------------|------------------------|------------------------| 
  1   +   2   +   3   +    1   +   2   +   3   +    1   +   2   +   3   +    1   +   2   +   3   +    

  Ebm7    Ab7     Dbmaj7   Ebm7    Ab7     Dbmaj7   Ebm7    Ab7     Dbmaj7    
e|------------------------|------------------------|------------------------|------------------------| 
B|----9-------7---6-------|----9-------7---6-------|----9-------7---6-------|------------------------| 
G|8-------8---------------|8-------8---------------|8-------8---------------|------------------------| 
D|------------------------|------------------------|------------------------|------------------------| 
A|------------------------|------------------------|------------------------|------------------------| 
E|------------------------|------------------------|------------------------|------------------------| 
  1   +   2   +   3   +    1   +   2   +   3   +    1   +   2   +   3   +    1   +   2   +   3   + 

Head 

  Abmaj7                                            Cm7                      F7 
e|------------------------|------------------------|------------------------|------------------------| 
B|------------------------|----------------6---9---|8---6-------6---8-------|----------------6-------| 
G|------------------------|----5---5---8-----------|--------8---------------|--------------------8---| 
D|6---------------5---6---|8-----------------------|------------------------|------------------------| 
A|--------6---8-----------|------------------------|------------------------|------------------------| 
E|------------------------|------------------------|------------------------|------------------------| 
  1   +   2   +   3   +    1   +   2   +   3   +    1   +   2   +   3   +    1   +   2   +   3   + 

  Bbm7                     Eb7                      Abmaj7                   F7 
e|------------------------|------------------------|------------------------|------------------------| 
B|--------6---8---6-------|--------8---6-----------|------------------------|----------------6-------| 
G|6---8-------------------|----------------8---6---|5---6---8---------------|--------------------8---| 
D|------------------------|------------------------|------------------------|------------------------| 
A|------------------------|------------------------|------------------------|--------7---8-----------| 
E|------------------------|------------------------|------------------------|------------------------| 
  1   +   2   +   3   +    1   +   2   +   3   +    1   +   2   +   3   +    1   +   2   +   3   + 

  Bbm7                     Dbm7                     Cm7                      F7 
e|------------------------|------------------------|------------------------|------------------------| 
B|------------------------|------------------------|------------------------|------------------------| 
G|6---5-----------6-------|------------------------|5---------------6-------|--------5---6-----------| 
D|--------8---6-----------|------------6---8---6---|------------------------|----------------7-------| 
A|------------------------|--------7---------------|------------------------|--------------------8---| 
E|------------------------|------------------------|------------------------|------------------------| 
  1   +   2   +   3   +    1   +   2   +   3   +    1   +   2   +   3   +    1   +   2   +   3   + 

  Bbm7                     Eb7                      Abmaj7                   Eb7 
e|------------------------|------------------------|------------------------|------------------------| 
B|------------------------|------------------------|------------------------|------------------------| 
G|5-------5---------------|----5---6---8---5-------|------------------------|------------------------| 
D|----------------6-------|8-------------------5---|8---6---6---5---6-------|------------------------| 
A|--------------------8---|------------------------|------------------------|------------------------| 
E|------------------------|------------------------|------------------------|------------------------| 
  1   +   2   +   3   +    1   +   2   +   3   +    1   +   2   +   3   +    1   +   2   +   3   + 
 
  

cifra enviadasem correções
enviado porenviada por:ubirbomfim
top 5 | sonny rollins
top rock'n roll
Outras músicas do artista letras do(a) Sonny Rollins
1.
Doxy
Top cifras »Top artistas »
Petaxxon Comunicação Online
Cifras.com.br - Melhor e mais completo site de cifras e tablaturas do Brasil
Mais de 1 milhão de acordes de músicas cadastradas desde 2003
As informações contidas no nosso site são colaborações de seus usuários e podem conter erros, sendo assim, não nos responsabilizamos sobre nenhuma destas.
close
menos
mais
close
Cor dos acordes:

Cor da letra:

 

save
close
close
 
redimensionar