Cifras e Tablaturas
Sopico

Sopico

Guitar La Street

Cifras Cancelar Versão de Impressão

Sopico - Guitar La Street

Tom: C

  			
Intro 
    Em                 C              Am                D 
e|------------x--------------------------------x--------------3p2-----2-----| 
B|------------x-----------------1-----------1--x-------------------3--------| 
G|---------0--x--------------0--------------2--x-----------2----------------| 
D|---------2--x-----------2--------------2-----x--------0----------------0--| 
A|------2-----x--x-----3--------------0--------x--x-------------------------| 
E|---0--------x--------------------------------x----------------------------| 

   Em           C               Am             D 
e|-----------x---------------------------x-----2--| 
B|-----------x--------0p1-------------1--x-----3--| 
G|--------0--x-------------2----------2--x-----2--| 
D|-----------x-----2---------------2-----x-----0--| 
A|-----2-----x--3---------------0--------x--------| 
E|--0--------x---------------------------x--------| 

Rest of the song 
    Em                C                 Am                D 
e|-----------x-----------------x-----------------x--------------2--x--2--| 
B|--------0--x--0-----------1--x--1-----------1--x--1-----------3--x--3--| 
G|--------0--x--0-----------0--x--0-----------2--x--2--------2-----x-----| 
D|-----2-----x-----------2-----x-----------2-----x--------0--------x-----| 
A|-----------x--------3--------x--------0--------x-----------------x-----| 
E|--0--------x-----------------x-----------------x-----------------x-----| 

************************************ 

| x  Dead note 
| p  Pull-off 

************************************ 
    	
fixar
fixar inscrever-se

enviado porenviado por: jessgomes
cifra enviadaCorrigida por: sem correções
logo top cifrasComente
ico música do artistaMúsicas deste artista
ico curtiuCurtiu?
ico destaqueDestaque
Petaxxon Comunicação Online

Cifras.com.br - Melhor e mais completo site de cifras e tablaturas do Brasil Mais de 1 milhão de acordes de músicas cadastradas desde 2003
As informações contidas no nosso site são colaborações de seus usuários e podem conter erros, sendo assim, não nos responsabilizamos sobre nenhuma destas.

close
menos
mais
close
Cor dos acordes:

Cor da letra:

close
Alinhar acordes a direita Alinhar acordes a esquerda Alinhar acordes em baixo Alinhar acordes no topo
close
  Mostrar todos os acordes Esconder acordes muito fáceis Esconder acordes fáceis Esconder acordes intermediários
redimensionar
glossário