Cifras e Tablaturas
Soul Asylum

Soul Asylum

Black Gold

Cifras Cancelar Versão de Impressão
cifras

Soul Asylum - Black Gold

fixar na tela  
Exibindo: vídeo-aula ver clipes redimensionar
  
        E||-------------------------2--2---2-----2---2---2-------|| 
        B||-------------------------3----3---3-----3---3---3-----|| 
        G||----------0-----0-----0--2----------2-------------2---|| 
        D||--------2-----0-----0----0----------------------------|| 
        A||--0-2-3-----2-----0-----------------------------------|| 
        E||------------------------------------------------------|| 


         Solo Guitar(Dan Murphy)          

        E||------------------------------------------------------|| 
        B||-------------------------7--7---7-----7---7---7-------|| 
        G||-------------------------7----7---7-----7---7---7-----|| 
        D||----------5-----5-----5--7----------7-------------7---|| 
        A||--------7-----5-----5----5----------------------------|| 
        E||--5-7-8-----7-----5-----------------------------------|| 


        Part 2 

         Base Guitar 

        E||--10--9----7---5----5---5--3-3-3-2-------|| 
        B||--10-10----8---7----7---5--3-3-3-3-------|| 
        G||--11--9-11-7-9-7----7---6--4-4-4-2-------|| 
        D||------------------0---0----------0-------|| 
        A||-----------------------------------------|| 
        E||-----------------------------------------|| 


         Solo Guitar 

        E||--10--9----------------------------------|| 
        B||--10-10--12-12-12-10--10-8--8-8-8-7------||  
        G||---9--9--12-12-12-11---9-7--7-7-7-7------|| 
        D||---------12-12-12-12--11-9--9-9-9-7------|| 
        A||-----------------------------------------|| 
        E||-----------------------------------------|| 


        Part 3/Chorus 

         Base Guitar 

        E||-3-3-2-2---3-3-2-2-------------------------2-----------------|| 
        B||-3-3-3-3---3-3-3-3-------------------------3-----------------|| 
        G||-0-0-2-2---0-0-2-2----------0-----0-----0--2-----------------|| 
        D||-0-0-0-0---0-0-0-0--------2-----0-----0----0-----------------|| 
        A||-2-2-------2-2------0-2-3-----2-----0------------------------|| 
        E||-3-3-------3-3-----------------------------------------------|| 


         Solo Guitar 

        E||-3-3-------3-3-----------------------------------------------|| 
        B||-3-3-3-3---3-3-3-3-------------------------------------------|| 
        G||-0-0-2-2---0-0-2-2-------------------------7-----------------|| 
        D||-0-0-0-0---0-0-0-0----------5-----5-----5--7-----------------|| 
        A||-0-0-------0-0------------7-----5-----5----5-----------------|| 
        E||-0-3-------0-3------5-7-8-----7-----5------------------------|| 



Verse: 

         Base Guitar 

        e||-2--0--2--3--0--2----5-3-3--3-3-3--2--------------|| 
        B||-3--3--3--3--3--3----5-3-3--3-3-3--3--------------|| 
        G||-2--2--2--2--2--2----6-4-4--4-4-4--2--------------|| 
        D||--------------------------------------------------|| 
        A||--------------------------------------------------|| 
        E||--------------------------------------------------|| 


         Solo Guitar 

        E||---------------------------|----------------------|| 
        B||----7--5--7--8--5--7--7----|--10--8--8--8--7------|| 
        G||----7--6--7--7--6--7--7----|---9--7--7--7--7------|| 
        D||----7--7--7--7--9--7--7----|--11--9--8--8--7------|| 
        A||---------------------------|----------------------|| 
        E||---------------------------|----------------------|| 


Chorus 

         Base Guitar 

        E||-3-3-2-2---3-3-2-2-------------------------2-----------------|| 
        B||-3-3-3-3---3-3-3-3-------------------------3-----------------|| 
        G||-0-0-2-2---0-0-2-2----------0-----0-----0--2-----------------|| 
        D||-0-0-0-0---0-0-0-0--------2-----0-----0----0-----------------|| 
        A||-2-2-------2-2------0-2-3-----2-----0------------------------|| 
        E||-3-3-------3-3-----------------------------------------------|| 


         Solo Guitar 

        E||-3-3-------3-3-----------------------------------------------|| 
        B||-3-3-3-3---3-3-3-3-------------------------------------------|| 
        G||-0-0-2-2---0-0-2-2-------------------------7-----------------|| 
        D||-0-0-0-0---0-0-0-0----------5-----5-----5--7-----------------|| 
        A||-0-0-------0-0------------7-----5-----5----5-----------------|| 
        E||-0-3-------0-3------5-7-8-----7-----5------------------------|| 


Passing 

        Dave/Acoustic 

               C            Em                     A 
       E||----0----3-0-----0----3-0---------------0-0-0-------------|| 
       B||----1--1-----1---0--0-----0-------------2-2-2---3-2-3-2---|| 
       G||----0------------0----------------------2-2-2-------------|| 
       D||----2------------2----------------------2-2-2-------------|| 
       A||----3------------2----------------------0-0-0-------------|| 
       E||-----------------0----------------------------------------|| 


        Dan/Electric(distorted) 

               C            Em                         D 
       E||---------------------------------------------------------------------|| 
       B||---------------------------------------------------------------------|| 
       G||----0----------------------------------------------------------------|| 
       D||----2------------2--------------------------0------------------------|| 
       A||----3------------2--------------------------0-0-0-0-0-0-0-0----------|| 
       E||-----------------0---------------------------------------------------|| 


Solo:   Essa tab é dada apenas como referência pois não tive a capacidade de compreender e executar todo o solo. 

        Solo elétrico sem distorção e com um monte de vibrato / Chorus 

       E||---------------------------------------------------------------------|| 
       B||--9^-(9)R--8----etc. etc.--------------------------------------------|| 
       G||---------------------------------------------------------------------|| 
       D||----------------(sound effects, children playing, etc.)--------------|| 
       A||---------------------------------------------------------------------|| 
       E||---------------------------------------------------------------------|| 

        
        Guitarra acústica repete isto durante todo Solo: 

       e||--------------------------------|| 
       B||--2--4--5----5-4---5--4H5-4-2---|| 
       G||--------------------------------|| 
       D||--------------------------------|| 
       A||--------------------------------|| 
       E||--------------------------------|| 


 
  

cifra enviadasem correções
enviado porenviada por:carlluz
top 5 | soul asylum
top rock'n roll
Outras músicas do artista letras do(a) Soul Asylum
Top cifras »Top artistas »
Petaxxon Comunicação Online
Cifras.com.br - Melhor e mais completo site de cifras e tablaturas do Brasil
Mais de 1 milhão de acordes de músicas cadastradas desde 2003
As informações contidas no nosso site são colaborações de seus usuários e podem conter erros, sendo assim, não nos responsabilizamos sobre nenhuma destas.
close
menos
mais
close
Cor dos acordes:

Cor da letra:

 

save
close
close
 
redimensionar