Cifras e Tablaturas
Sound City Players

Sound City Players

Centipede

Cifras Cancelar Versão de Impressão Print

Sound City Players - Centipede

Tom: C

  • 0:00 / 0:00
  			

Intro: 
               C                                          x4 
e||---------|---------------------------------------------|| 
B||---------|o-------------------------------------------o|| 
G||------0--|----0-----0---0-----0---0-----0-----0-----0--|| 
D||--2h4~~--|------2h4~~-----2h4~~-----2h4-/-4h5---2h4----|| 
A||---------|o-3~~-------3~~-------3~~-------------------o|| 
E||---------|---------------------------------------------|| 

Verse 1: 
     C                                          x8 
e||---------------------------------------------|| 
B||o-------------------------------------------o|| 
G||----0-----0---0-----0---0-----0-----0-----0--|| 
D||------2h4~~-----2h4~~-----2h4-/-4h5---2h4----|| 
A||o-3~~-------3~~-------3~~-------------------o|| 
E||---------------------------------------------|| 

Chorus 1: 
     C                                      Eb               Bb 
e||---------------------------------------------------------------------------------| 
B||---------------------------------------------------------------------------------| 
G||----0-----0----0----0---0-----0---0-----0---0-----0-----0---0-----0-----0-----0--| 
D||---------------------------------------------------------------------------------| 
A||--3---0h3---3---0h3---3---0h3---3---0h3-/-6---0h6---0h6--------------------------| 
E||----------------------------------------------------------6---0h6---0h6---0h6----| 

    C                                       Eb              Bb 
e|---------------------------------------------------------------------------------| 
B|---------------------------------------------------------------------------------| 
G|----0-----0----0----0---0-----0---0-----0---0-----0-----0---0-----0-----0-----0--| 
D|---------------------------------------------------------------------------------| 
A|--3---0h3---3---0h3---3---0h3---3---0h3-/-6---0h6---0h6--------------------------| 
E|----------------------------------------------------------6---0h6---0h6---0h6----| 

    C 
e|-------------------------------------------|| 
B|-------------------------------------------|| 
G|----0-----0----0----0---0-----0---0-----0--|| 
D|-------------------------------------------|| 
A|--3---0h3---3---0h3---3---0h3---3---0h3----|| 
E|-------------------------------------------|| 


Something like this is played along by another guitar, I guess. 
                                             Eb                  Bb 
e||-----------------------------------------------------------------------------------|1 
B||--------------------------------------------8---8-8---8---8-8---6---6-6---6---6-6--| 
D||--------------------------------------------8---8-8---8---8-8---7---7-7---7---7-7--| 
G||-----------------------------------------------------------------------------------| 
A||------------------------------------------6---6-----6---6--------------------------| 
E||--------------------------------------------------------------6---6-----6---6------| 

    C                                        Eb                  Bb 
e|-----------------------------------------2----------------------------------------------|2 
B|----5---5-5---5---5-5---5---5-5---5---5-5----8---8-8---8---8-8---11---11-11---11---11-11--| 
D|----5---5-5---5---5-5---5---5-5---5---5-5----8---8-8---8---8-8---10---10-10---10---10-10--| 
G|---------------------------------------------------------------8----8-------8----8--------| 
A|--3---3-----3---3-----3---3-----3---3------6---6-----6---6--------------------------------| 
E|------------------------------------------------------------------------------------------| 

    C 
e|-------------------------------------------|| 
B|----5---5-5---5---5-5---5---5-5---5---5-5--|| 
D|----5---5-5---5---5-5---5---5-5---5---5-5--|| 
G|-------------------------------------------|| 
A|--3---3-----3---3-----3---3-----3---3------|| 
E|-------------------------------------------|| 

Those 1 and 2 marks represent two little riffs that are played (by what seems to be  
an third guitar) in between the chords: 

1 
e||---------|| 
B||--6/8/5--|| 
D||---------|| 
G||---------|| 
A||---------|| 
E||---------|| 

2 
e||-----------|| 
B||--5-5p3----|| 
D||--------5--|| 
G||-----------|| 
A||-----------|| 
E||-----------|| 

Interlude (it's the moment between the next verse): 
     C                                          x4 
e||---------------------------------------------|| 
B||o-------------------------------------------o|| 
G||----0-----0---0-----0---0-----0-----0-----0--|| 
D||------2h4~~-----2h4~~-----2h4-/-4h5---2h4----|| 
A||o-3~~-------3~~-------3~~-------------------o|| 
E||---------------------------------------------|| 

This phrase is played along with the interlude's riff. 
e||----------------|---------------|----------|---------------|| 
B||----------------|---------------|----------|---------------|| 
D||------0-2p0-----|---------------|----------|-----0-2p0-----|| 
G||--2h4-------4p2-|-0h2h4-5/4-2p0-|-0-2h4/5--|-2h4-------4p2-|| 
A||----------------|---------------|----------|---------------|| 
E||----------------|---------------|----------|---------------|| 

Verse 2: 
     C                                          x8 
e||---------------------------------------------|| 
B||o-------------------------------------------o|| 
G||----0-----0---0-----0---0-----0-----0-----0--|| 
D||------2h4~~-----2h4~~-----2h4-/-4h5---2h4----|| 
A||o-3~~-------3~~-------3~~-------------------o|| 
E||---------------------------------------------|| 

Chorus 2: 

     C                                      Eb               Bb 
e||---------------------------------------------------------------------------------| 
B||---------------------------------------------------------------------------------| 
G||----0-----0----0----0---0-----0---0-----0---0-----0-----0---0-----0-----0-----0--| 
D||---------------------------------------------------------------------------------| 
A||--3---0h3---3---0h3---3---0h3---3---0h3-/-6---0h6---0h6--------------------------| 
E||----------------------------------------------------------6---0h6---0h6---0h6----| 

    C                                       Eb              Bb 
e|---------------------------------------------------------------------------------| 
B|---------------------------------------------------------------------------------| 
G|----0-----0----0----0---0-----0---0-----0---0-----0-----0---0-----0-----0-----0--| 
D|---------------------------------------------------------------------------------| 
A|--3---0h3---3---0h3---3---0h3---3---0h3-/-6---0h6---0h6--------------------------| 
E|----------------------------------------------------------6---0h6---0h6---0h6----| 

    C 
e|-------------------------------------------|| 
B|-------------------------------------------|| 
G|----0-----0----0----0---0-----0---0-----0--|| 
D|-------------------------------------------|| 
A|--3---0h3---3---0h3---3---0h3---3---0h3----|| 
E|-------------------------------------------|| 


                                             Eb                  Bb 
e||-----------------------------------------------------------------------------------|1 
B||--------------------------------------------8---8-8---8---8-8---6---6-6---6---6-6--| 
D||--------------------------------------------8---8-8---8---8-8---7---7-7---7---7-7--| 
G||-----------------------------------------------------------------------------------| 
A||------------------------------------------6---6-----6---6--------------------------| 
E||--------------------------------------------------------------6---6-----6---6------| 

    C                                        Eb                  Bb 
e|-----------------------------------------2----------------------------------------------|2 
B|----5---5-5---5---5-5---5---5-5---5---5-5----8---8-8---8---8-8---11---11-11---11---11-11--| 
D|----5---5-5---5---5-5---5---5-5---5---5-5----8---8-8---8---8-8---10---10-10---10---10-10--| 
G|---------------------------------------------------------------8----8-------8----8--------| 
A|--3---3-----3---3-----3---3-----3---3------6---6-----6---6--------------------------------| 
E|------------------------------------------------------------------------------------------| 

    C 
e|-------------------------------------------|| 
B|----5---5-5---5---5-5---5---5-5---5---5-5--|| 
D|----5---5-5---5---5-5---5---5-5---5---5-5--|| 
G|-------------------------------------------|| 
A|--3---3-----3---3-----3---3-----3---3------|| 
E|-------------------------------------------|| 

1 
e||---------|| 
B||--6/8/5--|| 
D||---------|| 
G||---------|| 
A||---------|| 
E||---------|| 

2 
e||-----------|| 
B||--5-5p3----|| 
D||--------5--|| 
G||-----------|| 
A||-----------|| 
E||-----------|| 


 
    	

enviado porenviado por: paulantunes
cifra enviadaCorrigida por: sem correções
logo top cifrasComente
ico música do artistaMúsicas deste artista
ico curtiuCurtiu?
ico destaqueDestaque
Petaxxon Comunicação Online

Cifras.com.br - Melhor e mais completo site de cifras e tablaturas do Brasil Mais de 1 milhão de acordes de músicas cadastradas desde 2003
As informações contidas no nosso site são colaborações de seus usuários e podem conter erros, sendo assim, não nos responsabilizamos sobre nenhuma destas.

close
menos
mais
close
Cor dos acordes:

Cor da letra:

close
Alinhar acordes a direita Alinhar acordes a esquerda Alinhar acordes em baixo Alinhar acordes no topo
close
  Mostrar todos os acordes Esconder acordes muito fáceis Esconder acordes fáceis Esconder acordes intermediários
redimensionar
glossário